PrimaNota.ru - самый крупный в мире бесплатный архив песенных текстов, аккордов, табулатур и нот


Kylahullut - Spurgu - таба, видео

Регистрация Запомнить меня
Войти через:  Facebook Google Twitter Vk Yandex Mail.ru

Kylahullut - Spurgu - таба, видео

Печатать
Просмотров: 177
      PM  PM PM                         
      E   S  S  E   E   E   E   E   E   
E||------------12--12------------------|
B||---------12---------12--12----------|
G||------12--------------------12--12--|
D||--14--------------------------------|
A||------------------------------------|
E||------------------------------------|


   E   E   E   E   E   E   E   E   
----------14--14------------------|
------------------15--15----------|
--------------------------16--16--|
--16--16--------------------------|
----------------------------------|
----------------------------------|


   PM  PM PM                         
   E   S  S  E   E   E   E   E   E   
---------12-15--15--14--14----------|
------13--------------------15--15--|
--12--------------------------------|
------------------------------------|
------------------------------------|
------------------------------------|


   E   E   E   E   E   E   E   E   
----------17--17--14--14----------|
--------------------------15--15--|
--14--14--------------------------|
----------------------------------|
----------------------------------|
----------------------------------|


   Q      Q      E   E   Q     
------------------------------|
--12b----12b----12--10--12----|
------------------------------|
------------------------------|
------------------------------|
------------------------------|


   Q      Q      E   E   E   E   
--12b----12b----12--10----------|
------------------------12--14--|
--------------------------------|
--------------------------------|
--------------------------------|
--------------------------------|


   E   E   E   E   E   E   E   E   
--15--14----------------------12--|
----------15------12--13--15------|
--------------14------------------|
----------------------------------|
----------------------------------|
----------------------------------|


   E   E   E  E   E   E   E   E   
--------------9--10--------------|
--11--12--13---------12--10------|
-----------------------------12--|
---------------------------------|
---------------------------------|
---------------------------------|


   PM  PM  PM            PM  
   E   E   E   H         E   
----------------------------|
----------------------------|
----------------------------|
----------12--14------------|
--12--14----------------12--|
----------------------------|


   PM  PM                       
   E   E   Q    E   E   E   E   
-------------------------------|
-------------------------------|
-------------------------------|
------12--14---------------10--|
--14---------------12--14------|
-------------------------------|


   E   E   E   E   E   E   E   E   
----------------------------------|
------12--13--14--15--13--12--10--|
--14------------------------------|
----------------------------------|
----------------------------------|
----------------------------------|


   Q      E   E   E   E   E   E   
--10b----------------------------|
---------------------------------|
---------------------------------|
---------------------------------|
---------------------10----------|
---------12--10--12------12--10--|


   Q      E   E   E   E   E   E   
--10b----------------------------|
---------------------------------|
---------------------------------|
---------------------------------|
---------------------10----------|
---------12--10--12------12--10--|


   Q     E   E   E   E   E   E   
--15----------------15----------|
--------17--15--17------17--15--|
--------------------------------|
--------------------------------|
--------------------------------|
--------------------------------|


   Q.      E   E   E   E   E   
------------------------------|
--15------15--15--15--15--15--|
------------------------------|
------------------------------|
------------------------------|
------------------------------|


   E   E   E  H        E    
--------------------------||
--16--16--16--------------||
--------------------------||
--------------------------||
--------------------------||
--------------------------||




Duration Legend
---------------
W - whole
H - half
Q - quarter
E - 8th
S - 16th
T - 32nd
X - 64th
. - note dotted
|-n-|  - n-tuplets


Tablature Legend
----------------
L - tied note
x - dead note
g - grace note
(n) - ghost note
> - accentuded note
NH - natural harmonic
AH - artificial harmonic
TH - tapped harmonic
SH - semi harmonic
PH - pitch harmonic
h - hammer on
p - pull off
b - bend
br - bendRelease
pb - preBend
pbr - preBendRelease
brb - bendReleaseBend
\n/ - tremolo bar dip
\n - tremolo bar dive
-/n - tremolo bar Release up
/n\ - tremolo bar inverted dip
/n - tremolo bar return
-\n - tremolo bar Release down
S - shift slide
s - legato slide
/ -  slide into from below or out of upwards
\ -  slide into from above or out of downwards
~ - vibrato
W - wide vibrato
tr - trill
TP - tremolo picking
T - tapping
S - slap
P - pop
< - fade in
^ - brush up
v - brush down
Добавлено: 08.05.2012
Вам также может быть интересно:
Другие материалы по этой песне:
  • Аккорды и текст

Страница создана 08.05.2012
http://primanota.ru/kylahullut/spurgu-chords.htm
Привет, Гость.
Предлагаем пройти революционный курс по гитаре.
Подарок от PrimaNota.Ru, забирай!