PrimaNota.ru - самый крупный в мире бесплатный архив песенных текстов, аккордов, табулатур и нот


Kyla La Grange - Catalyst - таба, видео

Регистрация Запомнить меня
Войти через:  Facebook Google Twitter Vk Yandex Mail.ru

Kyla La Grange - Catalyst - таба, видео

Печатать
Просмотров: 284
Уроки эстрадного вокала в Санкт-Петербурге
-------------------------------------------------------------------------------
                             CATALYST - Kyla La Grange
-------------------------------------------------------------------------------
Tabbed by: Melissa
E-mail: beautifulwings-@hotmail.com

Tuning: D tuning (full step down)

Intro&Verse
                      Lie down..      I'll sit you...
D|------------------------------------------------------------------------|
A|------------------------------------------------------------------------|
F|------------------------------------------------------------------------|
C|--5--5-----5--5-----5--5-----2--2------10----10---------12----12--------|
G|-5--5--5--5--5--5--5--5--5--2--2--2--10----10----10---12----12----12----|
D|3--3--3--3--3--3--3--3--3--0--0--0--8-----8----8----10----10----10------|
  I've watched you... Make no sound...
D|------------------------------------------------------------------------|
A|------------------------------------------------------------------------|
F|------------------------------------------------------------------------|
C|--5--5-----2--2------10----10---------12----12--------------------------|
G|-5--5--5--2--2--2--10----10----10---12----12----12----------------------|
D|3--3--3--0--0--0--8-----8----8----10----10----10------------------------|
  I'll light you...  Your hands are...
D|------------------------------------------------------------------------|
A|------------------------------------------------------------------------|
F|------------------------------------------------------------------------|
C|--5--5-----2--2------10----10---------12----12--------------------------|
G|-5--5--5--2--2--2--10----10----10---12----12----12----------------------|
D|3--3--3--0--0--0--8-----8----8----10----10----10------------------------|
  I've slashed...   You cannot...
D|------------------------------------------------------------------------|
A|------------------------------------------------------------------------|
F|------------------------------------------------------------------------|
C|--5--5-----2--2------10----10---------12----12--------- 12----12--------|
G|-5--5--5--2--2--2--10----10----10---12----12----12--- 12----12----12----|
D|3--3--3--0--0--0--8-----8----8----10----10----10----10----10----10------|

  Pre-chorus        I hope that you will...
D|------------------------------------------------------------------------|
A|------------------------------------------------------------------------|
F|------------------------------------------------------------------------|
C|--2--2-----5--5-------12----12---------10----10-------------------------|
G|-2--2--2--5--5--5---12----12----12---10----10---10----------------------|
D|0--0--0--3--3--3--10----10----10----8----8-----8------------------------|
  And all of us...   To kill..                       I see it...
D|----------------------------------------------------------------------------|
A|----------------------------------------------------------------------------|
F|----------------------------------------------------------------------------|
C|--2--2-----5--5-------12----12---------10----10-------10---10-------10---10-|
G|-2--2--2--5--5--5---12----12----12---10----10---10--10---10---10--10---10---|
D|0--0--0--3--3--3--10----10----10----8----8-----8---8---8----8----8----8-----|

--------------------------------------|
--------------------------------------|
--------------------------------------|
---------7---7-------7---7------------|
---10---7---7---7---7---7---7---------|
--8----5---5---5---5---5---5----------|

  Chorus  (repeat measure 4x)
D|-----------------------------------------------------------|
A|-----------------------------------------------------------|
F|-----------------------------------------------------------|
C|----12----12--------2---2--------10---10--------10---10----|
G|--12----12----12---2---2---2---10---10---10---10---10---10-|
D|10----10----10----0---0---0---8----8----8----8----8----8---|

VERSE
Lie down take your clothes off and let me stare
I've watched you for hours my eyes stripped you bare
Stop me from crying I shouldn't keep you there
For all that I needed I need you not to care

PRE-CHORUS (play measure 2x)
Oh nobody caught me yet I hope that you will
And all of us are drawn by lust to kill and to be killed
Oh nobody caught me yet I hope that you will
And all of us return to dust and that's what makes me ill
Do you see it in my eyes?

CHORUS x2 (strum chords from here on out, mute last 3 strings)
   B5       Em          A5
And all our skin burned so fast
  B5            Em               A5
I'll give you a love that cannot last
  B5        Em              A5
And all our eyes light like flames
  B5           Em           A5
I need you to forever call my name x2


B5 Em A6 x4 (on last one strum chords once each)


Chords
F5 - 355xxx
Em - 022xxx
A5 - 81010xxx
B5 - 101212xxx
Добавлено: 09.11.2013
Другие материалы по этой песне:
  • Аккорды и текст

Страница создана 09.11.2013
http://primanota.ru/kyla-la-grange/catalyst-chords.htm
Привет, Гость.
Предлагаем пройти революционный курс по гитаре.
Подарок от PrimaNota.Ru, забирай!