PrimaNota.ru - самый крупный в мире бесплатный архив песенных текстов, аккордов, табулатур и нот


Kyla La Grange - Been Better - аккорды и текст, видео

Регистрация Запомнить меня
Войти через:  Facebook Google Twitter Vk Yandex Mail.ru

Kyla La Grange - Been Better - аккорды и текст, видео

Печатать
Просмотров: 153
Уроки эстрадного вокала в Санкт-Петербурге
Been Better
Kyla La Grange
-------------------------------------------------------------------------------
                             BEEN BETTER - Kyla la Grange
-------------------------------------------------------------------------------
Tabbed by: mrsubwoof
Tuning: Standard
Capo: 3


Main Riff (distorted, tabs are without capo):

e|---------------------------------------------------------------------------|
B|--8-8----------------------------------------------------------------------|
G|------5-5-7-7-3-3----------------------------------------------------------|
D|---------------------------------------------------------------------------|
A|---------------------------------------------------------------------------|
E|---------------------------------------------------------------------------|

Solo (disorted, tabs are without capo):

e|---------------------------------------------------------------------------|
B|---------------------------------------------------------------------------|
G|--7-5-3-3------------7-5-3-3-----------------------------------------------|
D|----------3-3-5--------------3-5-------------------------------------------|
A|---------------------------------------------------------------------------|
E|---------------------------------------------------------------------------|

Acoustic guitar chords (with capo):

  Main Riff (8x)

 Em                    G
Tell me, none of your longings
         D             Em
I don't need them, or you
     Em                     G
And leave me, none of your wisdom
         D                       Em
I don't need your lies, or your truths


 Em                         G
I've been better, when the sky was red
        D                       Em
And a face like yours couldn't make me scared
 Em                         G
I've been better, with the things I've said
        D                        Em
When I took the lead instead of being led


  Main Riff (4x)

  
 Em                    G
Feed me, none of your lines
         D                          Em
I won't fall for them, 'cause I'll lose
     Em                     G
And hold me, to none of my words
         D                        Em
I don't mean them, when I'm with you

         D                       Em
And the cars streak past with a life inside
    G                   D
Why is my life in your eyes?
         D                     Em
And the windows glow with the hearts they've known
    G                  D
Why is my heart never mine?


 Em                         G
I've been better, when the sky was red
        D                       Em
And a face like yours couldn't make me scared
 Em                         G
I've been better, with the things I've said
        D                        Em
When I took the lead instead of being led
[x2]


  Solo (2x)
  Main theme (8x)


 Em                         G
I've been better, when the sky was red
        D                       Em
And a face like yours couldn't make me scared
 Em                         G
I've been better, with the things I've said
        D                        Em
When I took the lead instead of being led
[x2]

  Main theme going on until song has finished ...

   Em           G              D
I been better, been better, oh oh oh
 Em           G                D
Been better, I been better, oh oh oh
   Em           G              D
I been better, I been better, oh oh oh
 Em           G                D
Been better, been better, oh oh oh
Добавлено: 02.06.2013
Другие материалы по этой песне:
  • Аккорды и текст

Страница создана 02.06.2013
http://primanota.ru/kyla-la-grange/been-better-chords.htm
Привет, Гость.
Предлагаем пройти революционный курс по гитаре.
Подарок от PrimaNota.Ru, забирай!