PrimaNota.ru - самый крупный в мире бесплатный архив песенных текстов, аккордов, табулатур и нот


Kygo - Stole The Show - аккорды и текст, таба, видео

Регистрация Запомнить меня
Войти через:  Facebook Google Twitter Vk Yandex Mail.ru

Kygo - Stole The Show - аккорды и текст, таба, видео

Печатать
Просмотров: 1783
Авторы: Kyrre Gørvell-Dahll, Michael Harwood, Parson James, Marli Harwood

Stole The Show
Kygo
http://kygomusic.com/
Kygo feat. Parson James - Stole The Show (2015)

Main "riff" - Played during interlude and outro

e|---------------------------------------------------------------------------------------|
B|----12-12--12--12-12--12--12-12--12-12---------12-12-12--12-12----12-----14b16r14p12---|
G|-13-----------------------------------------13-----------------13----13----------------|x3
D|---------------------------------------------------------------------------------------|
A|---------------------------------------------------------------------------------------|
E|---------------------------------------------------------------------------------------|

e|--------------------------------------------------------------14-----------------------|
B|----12-12--12--12-12--12--12-12--12-12--------12-12--------------14b16r14p12-----------|
G|-13----------------------------------------13--------------13--------------------------|
D|---------------------------------------------------------------------------------------|
A|---------------------------------------------------------------------------------------|
E|---------------------------------------------------------------------------------------|

e|---------------------------------------------------------------------------------------|
B|----12-12--12--12-12--12--12-12--12-12---------12-12-12--12-12----12-----14b16r14p12---|
G|-13-----------------------------------------13-----------------13----13----------------|x4
D|---------------------------------------------------------------------------------------|
A|---------------------------------------------------------------------------------------|
E|---------------------------------------------------------------------------------------|



G#m               E             C#m 
Darling, darling, oh, turn the lights back on now
G#m               E             C#m 
Watching, watching, as the credits all roll down
G#m               E             C#m                  B   E     F# 
Crying, crying, you know we're playing to a full house, house

G#m
No heroes, villains, one to blame
E
While wilted roses filled the stage
B                             F#
And the thrill, the thrill is gone
G#m
Our debut was a masterpiece
E
But in the end for you and me
B                         F#
Oh, the show, it can't go on

                   C#m                         F#
We used to have it all, but now's our curtain call
                   G#m                        E
So hold for the applause, oh
                   C#m                          F#
And wave out to the crowd, and take our final bow
                   G#m                        E
Oh, it's our time to go, but at least we stole the show
              
                   G#m
At least we stole the show
                   F#
At least we stole the show
                   B
At least we stole the show
                   E
At least we stole the show

:Interlude:

                      G#m
At least we stole the show

G#m               E             C#m 
Darling, darling, you know that we are sold out
G#m               E             C#m 
This is fading, but the band plays on now
G#m               E             C#m                  B   E     F# 
We're crying, crying, so let the velvet roll down, down

G#m
No heroes, villains, one to blame
E
While wilted roses fill the stage
B                             F#
And the thrill, the thrill is gone
G#m
Our debut was a masterpiece
E
Our lines we read so perfectly
B                         F#
But the show, it can't go on

                   C#m                          F#
We used to have it all, but now's our curtain call
                   G#m                        E
So hold for the applause, oh
                   C#m                          F#
And wave out to the crowd, and take our final bow
                   G#m                        E 
Oh, it's our time to go, but at least we stole the show

E                     G#m                    E                     G#m           
At least we stole the show
E                     G#m                    E                     G#m    
At least we stole the show
E                     G#m                    E                     G#m              
At least we stole the show
E                     G#m                    E                     G#m    
Stole the show
E                     G#m                    E                     G#m    
At least we stole the show
E                     G#m                    E                     G#m    
Stole the show
E                     G#m                    E                     G#m    
At least we stole the show
Добавлено: 16.10.2015
Другие материалы по этой песне:
  • Аккорды и текст

Страница создана 15.10.2015
http://primanota.ru/kygo/stole-show-chords.htm
Привет, Гость.
Предлагаем пройти революционный курс по гитаре.
Подарок от PrimaNota.Ru, забирай!