PrimaNota.ru - самый крупный в мире бесплатный архив песенных текстов, аккордов, табулатур и нот


Kutless - Overcoming Me - текст песни, таба, видео

Регистрация Запомнить меня
Войти через:  Facebook Google Twitter Vk Yandex Mail.ru

Kutless - Overcoming Me - текст песни, таба, видео

Печатать
Просмотров: 232
-------------------------------------------------------------------------------
                             OVERCOMING ME -- Kutless
-------------------------------------------------------------------------------
Tabbed by: Derek Czysz's guitar instructor
Email: skczysz@juno.com

Just the intro, but this riff is repeated throughout the song.  Please feel free to 
correct, add the rest of the song.

Tuning: Drop C

d|-----------------------------------------------------------------------|
A|--------------------------------------------0---0----------------------|
F|------5-5---------5-5---------5-5---------5---5------------------------|
C|----3-----3-----3-----3-----2-----2-----2------------------------------| X 2
G|--5-----------5-----------0-----------0--------------------------------|
C|-----------------------------------------------------------------------|
Добавлено: 26.05.2012
Другие материалы по этой песне:

Страница создана 26.05.2012
http://primanota.ru/kutless/overcoming-me-chords.htm
Привет, Гость.
Предлагаем пройти революционный курс по гитаре.
Подарок от PrimaNota.Ru, забирай!