PrimaNota.ru - самый крупный в мире бесплатный архив песенных текстов, аккордов, табулатур и нот


Kutless - Dry - аккорды и текст, таба, видео

Регистрация Запомнить меня
Войти через:  Facebook Google Twitter Vk Yandex Mail.ru

Kutless - Dry - аккорды и текст, таба, видео

Печатать
Просмотров: 174
Dry
Kutless
----------------------------------------------------------------------------
			     Dry - Kutless
----------------------------------------------------------------------------
Tabbed by: Max Andersen
Email: deckrider@hotmail.com
Comment: This is an awsome song, I thought I had It right until I really 
started to actually listen to It. Have fun with it.
Tuning: Drop-D
Key: 
| /  slide up
|   slide down
| p  pull-off
| .  Palm mute 

Riff 1 gtr.2
e|---------------------------------------------------------|
B|---------------------------------------------------------|
G|-------0---0---------0---0-------0-----7-----------------|
D|-----0-------0-----0-----------0--------------9----------|
A|---9-------------9-----------9-------9------9-----9/109-|
D|-0-------0-----0-------0---9-------9------9-----9--------|

Riff 2 gtr.2
e|--------------------------------------|
B|--------------------------------------|
G|----------12-----------------12-------|
D|-------12----12-----------12----12----|
A|----10----------10-----10----------12-|
D|-10-----------------10----------------|


e|----------------------------------|
B|----------------------------------|
G|--------11--------------11--------|
D|-----11----11--------11----11-----|
A|---9----------9----9----------9---|
D|-9---------------9--------------9-|

Riff 3 gtr.1
e|--------|
B|--------|
G|--------|
D|-9-9--5-|
A|-9-9--5-|
D|-9-9--5-|

Riff 4a gtr.1
e|-------|
B|-------|
G|-------|
D|-5-15-|
A|-5-15-|
D|-5-15-|
                           
Riff 4b gtr.1
e|------------------------------------------------------|
B|------------------------------------------------------|
G|------------------------------------------------------|
D|-10-10-10-12-12-12-10-10-109-9-9-9-10-10-10-9-9-9/10-|
A|-10-10-10-10-10-10-10-10-109-9-9-9-9--9--9--9-9-9/10-|
D|-10-10-10-10-10-10-10-10-109-9-9-9-9--9--9--9-9-9/10-|
      .  .     .                  . .    .                 

e|-------------------------------------------|
B|-------------------------------------------|
G|-------------------------------------------|
D|-10-10-10-12-12-12-10-10-109-9-9-9-10-5-5-|
A|-10-10-10-10-10-10-10-10-109-9-9-9-9--5-5-|
D|-10-10-10-10-10-10-10-10-109-9-9-9-9--5-5-|
      .  .     .                  . .    .                 

Riff 5 gtr.2
e|-------------------------------------------|
B|-------------------------------------------|
G|-------7------------------------7----------|
D|-0---7----0---7-5-4p0---------7----0-7-5p0-|
A|-----------------------5/75---------------|
D|-------------------------------------------|

e|-----------------------------------------------|
B|-----------------------------------------------|
G|------------------------------------7----------|
D|--------4/54--------7-5-4p0--0---7---0--7-5-4-|
A|-5/75--------5/75----------------------------|
D|-----------------------------------------------|

Intro:
Riff 1 x2

Verse 1:
Riff 1 x2
Riff 2 x2
Riff 3
Riff 1 x4

Chorus:
Riff 4
Riff 4b x2

Interlude:
Riff 5
Riff 4b x4

End on:
e|---|
B|---|
G|---|
D|-5-|
A|-5-|
D|-5-|

That it, except for the othe guitar in the last two repeats of
Riff 4b. Maybe later.
Max Andersen
============================================================================
Добавлено: 12.05.2012
Другие материалы по этой песне:
  • Аккорды и текст

Страница создана 12.05.2012
http://primanota.ru/kutless/dry-chords.htm
Привет, Гость.
Предлагаем пройти революционный курс по гитаре.
Подарок от PrimaNota.Ru, забирай!