PrimaNota.ru - самый крупный в мире бесплатный архив песенных текстов, аккордов, табулатур и нот


Kurt Vile - Slow Talkers - таба, видео

Регистрация Запомнить меня
Войти через:  Facebook Google Twitter Vk Yandex Mail.ru

Kurt Vile - Slow Talkers - таба, видео

Печатать
Просмотров: 134
Kurt Vile ~ Slow Talkers

Based it mostly off this version: https://www.youtube.com/watch?v=r2POkagi0uI

CAPO 2 Standard tuning

Off the wonderful "Constant Hitmaker"

You should probably play this very, very slowly for awhile. It's a toughie.

Some of this may be off. Feel free to contribute corrections, please.

Intro:

   Em                  C/G       Em
e|---------------------------------------------| 
B|----------------------1--------0-------------| 
G|-0---------3-------------0---------0---------| 
D|-----2---------2-----------2----------2------|
A|----2----2----2----2----3----3----2----2-----| 
E|-0----0----0----0----3----3----0-----0-------|

 
   Em
e|---------------------------------------0--------------| 
B|------------------------------------------0-----------| 
G|-----0--------------------------0-----------0----0----| 
D|-0h2----2-3--2--2h0---2---2--0h2----2----------0------| 
A|----2----2----2-----2-----2----2----2----2----2---2---| 
E|-0----0----0----0------0----0----0----0----0----0-----|


"Everyone I know":

   Dm        Fmaj7     Cadd9         Dm        Fmaj7     Cadd9
e|-1--0------0----0------------------1---0------0----0--------------| 
B|-------3-----1----1-------1----------------3----1----1-----3------| 
G|---2----2----2---2--0--------0-------2------2---2---2--0-------0--| 
D|-0----0----3---3--------2----------0-----0----3---3-------2-------| 
A|--------------------0h3----3---2-----------------------0h3---3---2| 
E|------------------------------------------------------------------|


"I lose track what they say":

   Dm           C-shape       Cmaj7
e|-1---0----------------------------------------------------------| 
B|---------3----3s1---1-------8-------------8---------------------| 
G|---2-------2-----------0-------9-----9---------9-------9--------| 
D|-0-----0----------2------2-----10------10--------10------10-----| 
A|--------------5s3----3------10----10--------10------10----------| 
E|----------------------------------------------------------------|


"Before they walk away":

   Dm            Cmaj7
e|-1---3---3s5--3-------------0---------------------------------------------| 
B|---------------------0---0h3----3-----3------------------5----------------| 
G|---2------------------------------------------0------0-------0------------| 
D|-0-----0---------2-----2------2-----2-----2-----2------4-------4----------| 
A|--------------3----3-------3------3-----3---3------5-------5--------------| 
E|--------------------------------------------------------------------------|

Cont'd:

   Cadd9                                   G
e|--------3---3-------3------------------------------------------------------| 
B|-3----------------------3--------------------------------------------------| 
G|-----0----------------------------0---------4---4---4---4------------------| 
D|---2------2-----2-----2------2--------2-------5-------4--------------------| 
A|-3-----3------3---3-------3-----3---------5-------5------------------------| 
E|---------------------------------------------------------------------------|



   Cmaj7                        Em
e|------------------------0--------------------------------------------------| 
B|----------0---------0h3-----0----------------------------------------------| 
G|-----3b-------0--------------------------0-----------0---------------------| 
D|---2--------2-----2-------2------2---0h2-----2---0h2-----2---0h2-----------| 
A|-3------3-------3-----3----------2-----2-----2-----2-----2-----2-----------| 
E|------------------------------0----0-------0---0-------0---0---------------|

Back to "Everyone I know"

......


"Next time you come clothed in inquisitive suits":

   Dm             Cmaj7  Gmaj7       C            Gmaj7       Fmaj7
e|-1---0---------------------0------------------------0-----------0----------| 
B|---------3----1--8s----3-------3---1-------1----3-------3---1-------1------| 
G|---2-------0--2--9s------4-------4-----0h2---2----4-------4---2-------2----| 
D|-0-----0------3-10s--5-------5-------2----------5-----5-----3-----3--------| 
A|-----------------------------------3-----3---------------------------------| 
E|---------------------------------------------------------------------------|

Cont'd:

   C
e|---------------------------------------------0-----------------------------| 
B|----------1-----------1-------------1----1h3-----3-----1-------------------| 
G|------0------0-----0-----0------0------------------------------------------| 
D|---2-------2-----0-----0-----2--------2--------2-----2----2----------------| 
A|-3------3------3----3------3------3--------3-------3----3------------------| 
E|---------------------------------------------------------------------------|


Solo:

   Dmaj7/A                    Fmaj7/C
e|-------------5--------------8-------------8----------8---------------------| 
B|-----7-----------7---------------10------------10--------------------------| 
G|---6-----6-----6------6--------------9-------------------------------------| 
D|-----------7------------5-----10-------10---10---------10------------------| 
A|-0-----0-----0----0--------------------------------------------------------| 
E|----------------------------8-------------8--------8-----------------------|

Solo cont'd:

   Fmaj7/C
e|-12------10-10-10--------8--------7---7---7--------------------------------| 
B|---------------------------------------------------------------------------| 
G|-------9------------9---------9-----------------9--------------------------| 
D|----10-----10--10-----10---10------10-----10------10-----------------------| 
A|---------------------------------------------------------------------------| 
E|-8------8----8----8------8------8-------8-----8----------------------------|


Back to First parts.
End softly strumming Cmaj7



Everyone I know
Talks to me way too slow
I lose track what they say
Before they walk away

I told you once before
Ain't gonna say no more
Next time you come clothed in inquisitive suits
I'll consider myself mute

You're on my mind most times
When fear does not overflow
When that cranial cup runneth over
With things I despise over and over
My chalice of skin, bones, and blood
Pouring forth like the flood

Enjoy.

Добавлено: 23.08.2015
Другие материалы по этой песне:
  • Аккорды и текст

Страница создана 23.08.2015
http://primanota.ru/kurt-vile/slow-talkers-chords.htm
Привет, Гость.
Предлагаем пройти революционный курс по гитаре.
Подарок от PrimaNota.Ru, забирай!