PrimaNota.ru - самый крупный в мире бесплатный архив песенных текстов, аккордов, табулатур и нот


Kurt Vile - Goldtone - таба, видео

Регистрация Запомнить меня
Войти через:  Facebook Google Twitter Vk Yandex Mail.ru

Kurt Vile - Goldtone - таба, видео

Печатать
Просмотров: 61
-------------------------------------------------------------------------------
                             GOLDTONE - Kurt Vile
-------------------------------------------------------------------------------
Tabbed by: harrytheblurfan

Tuning: Standard
Capo: II 

I tabbed this intro from this video https://www.youtube.com/watch?v=Re9i4bsIiKM
Watch the video and figure out the rhythm and timing. It's a pretty simple song 
once you get the fingering right. 

e|---------------------------------------------------------------------------|
B|-3-3-3-3-3-3--3-3-3-3-3-3--3-3-3-3-3-3--1-1-1-1--3-3-3-3-3-3---------------|
G|-0-4-0-4-0-0--0-4-0-4-0-0--0-4-0-4-0-0--2-0-2-0--0-4-0-4-0-0---------------|
D|-2-2-2-2-2-2--2-2-2-2-2-2--2-2-2-2-2-2--2-2-2-2--2-2-2-2-2-2---------------|
A|-3-3-3-3-3-3--3-3-3-3-3-3--3-3-3-3-3-3--0-0-0-0--3-3-3-3-3-3---------------|
E|---------------------------------------------------------------------------|

Rinse and repeat. 

Not 100% sure about the other part but I think it's like this:

e|---------------------------------------------------------------------------|
B|------3h5p3-0--------------------------------------------------------------|
G|-2\4----------4------------------------------------------------------------|
D|---------------------------------------------------------------------------|
A|---------------------------------------------------------------------------|
E|---------------------------------------------------------------------------|

************************************

| /   slide up
| \   slide down
| h   hammer-on
| p   pull-off
| ~   vibrato
| +   harmonic
| x   Mute note
| b   Bend
| pb  Pre-bend
| br  Bend release
| pbr Pre-bend release
| brb Bend release bend

************************************
Добавлено: 28.10.2014
Другие материалы по этой песне:
  • Аккорды и текст

Страница создана 28.10.2014
http://primanota.ru/kurt-vile/goldtone-chords.htm
Привет, Гость.
Предлагаем пройти революционный курс по гитаре.
Подарок от PrimaNota.Ru, забирай!