PrimaNota.ru - самый крупный в мире бесплатный архив песенных текстов, аккордов, табулатур и нот


Kurt Travis - Too Loud Too Cold - таба, видео

Регистрация Запомнить меня
Войти через:  Facebook Google Twitter Vk Yandex Mail.ru

Kurt Travis - Too Loud Too Cold - таба, видео

Печатать
Просмотров: 60
-------------------------------------------------------------------------------
                             TOO LOUD / TOO COLD - Kurt Travis
-------------------------------------------------------------------------------
Tabbed by: Tanjamin

Tuning: Standard (EADGBE)

This song is fairly simple with mostly the same chords repeated throughout. 

Main riff:

e|-------------------------------------------------------------------|
B|-------------------------------------------------------------------|
G|---6----6----6--6---\---1----1----1----1-1---/---6-6-6-6-6-6-6-6---|
D|---7----7----7--7---\---2----2----2----2-2---/---7-7-7-7-7-7-7-7---|
A|---0----0----0--0---\---0----0----0----0-0---/---5-5-5-5-5-5-5-5---|
E|-------------------------------------------------------------------|

Second guitar (listen out for the timing)

There is a slight variation between the first and second time this is played.

First time:

e|-------------------------------------------------------------------|
B|-------------------------------------------------------------------|
G|---9----9----9--9---\---7----7----7----7--7--7--6-6-6-6-6-6-6-6----|
D|-------------------------------------------------------------------|
A|-------------------------------------------------------------------|
E|-------------------------------------------------------------------|

e|-------------------------------------------------------------------|
B|-------------------------------------------------------------------|
G|---6----6----6--6---\---4----4----4----4--4--4--4-4-4-4-4-4-4-4----|
D|-------------------------------------------------------------------|
A|-------------------------------------------------------------------|
E|-------------------------------------------------------------------|

e|-------------------------------------------------------------------|
B|-------------------------------------------------------------------|
G|---2----2----2--2--2---2----2----2----2--2--2--2-2-2-2-2-2-2-2----|
D|-------------------------------------------------------------------|
A|-------------------------------------------------------------------|
E|-------------------------------------------------------------------|

e|-------------------------------------------------------------------|
B|-------------------------------------------------------------------|
G|-------------------------------------------------------------------|
D|---6----6----6--6---/---7----7----7----7--7--/--9-9-9-9-9-9-9-9----|
A|-------------------------------------------------------------------|
E|-------------------------------------------------------------------|


Second Time:

e|-------------------------------------------------------------------|
B|-------------------------------------------------------------------|
G|---9----9----9--9---\---7----7----7----7--7--7--6-6-6-6-6-6-6-6----|
D|-------------------------------------------------------------------|
A|-------------------------------------------------------------------|
E|-------------------------------------------------------------------|

e|-------------------------------------------------------------------|
B|-------------------------------------------------------------------|
G|---6----6----6--6---\---4----4----4----4--4--4--4-4-4-4-4-4-4-4----|
D|-------------------------------------------------------------------|
A|-------------------------------------------------------------------|
E|-------------------------------------------------------------------|

e|-------------------------------------------------------------------|
B|-------------------------------------------------------------------|
G|---4----4----4--4---\---2----2----2----2--2--2--2-2-2-2-2-2-2-2----|
D|-------------------------------------------------------------------|
A|-------------------------------------------------------------------|
E|-------------------------------------------------------------------|

e|-------------------------------------------------------------------|
B|-------------------------------------------------------------------|
G|-------------------------------------------------------------------|
D|---6----6----6--6---/---7----7----7----7--7--/--9-9-9-9-9-9-9-9----|
A|-------------------------------------------------------------------|
E|-------------------------------------------------------------------|




************************************

| /   slide up
| \   slide down
| h   hammer-on
| p   pull-off
| ~   vibrato
| +   harmonic
| x   Mute note
| b   Bend
| pb  Pre-bend
| br  Bend release
| pbr Pre-bend release
| brb Bend release bend

************************************
Добавлено: 15.05.2014
Другие материалы по этой песне:
  • Аккорды и текст

Страница создана 15.05.2014
http://primanota.ru/kurt-travis/too-loud-too-cold-chords.htm
Привет, Гость.
Предлагаем пройти революционный курс по гитаре.
Подарок от PrimaNota.Ru, забирай!