PrimaNota.ru - самый крупный в мире бесплатный архив песенных текстов, аккордов, табулатур и нот


Kurikinton Fox - Overdrive - таба, видео

Регистрация Запомнить меня
Войти через:  Facebook Google Twitter Vk Yandex Mail.ru

Kurikinton Fox - Overdrive - таба, видео

Печатать
Просмотров: 71
Song Title   : OVERDRIVE
Band/Artist  : KuriKintoN  FoX
Discription  :

             : Hear and Watch this song in www.YOUTUBE.com
               Just type in there Kurikinton Fox Overdrive
               A guy with a mask on his face....



                          PM PM     PM PM     PM PM
e|--------------------------------------------------------|
B|--------------------5---------4---------5---------7--5--|
G|--------------------4---------4---------4---------4--4--|
D|---x\--\------------4---------4---------4---------4--4--|
A|---x\--\-----0----------0--0------0--0------0--0--------|
E|---x\--\------------------------------------------------|

             PM PM     PM PM     PM PM
e|-------------------------------------------|
B|-------5---------4---------5---------7--5--|
G|-------4---------4---------4---------4--4--|
D|-------4---------4---------4---------4--4--|
A|-4---------4--4------4--4------4--4--------|
E|-------------------------------------------|

             PM PM     PM PM     PM PM
e|-------------------------------------------|
B|-------5---------4---------5---------7--5--|
G|-------4---------4---------4---------4--4--|
D|-------4---------4---------4---------4--4--|
A|-0---------0--0------0--0------0--0--------|
E|-------------------------------------------|

             PM PM    PM PM           PM PM PM
e|-----------------------------------------------|
B|-------5---------4---------5-p4--------------5-|
G|-------4---------4---------------4--------4----|
D|-------4---------4---------------------4-------|
A|-4---------4--4-----4--4------------4----------|
E|-----------------------------------------------|

             PM PM     PM PM     PM PM
e|-------------------------------------------|
B|-------5---------4---------5---------7--5--|
G|-------4---------4---------4---------4--4--|
D|-------4---------4---------4---------4--4--|
A|-0---------0--0------0--0------0--0--------|
E|-------------------------------------------|

             PM PM     PM PM     PM PM
e|-------------------------------------------|
B|-------5---------4---------5---------7--5--|
G|-------4---------4---------4---------4--4--|
D|-------4---------4---------4---------4--4--|
A|-4---------4--4------4--4------4--4--------|
E|-------------------------------------------|


             PM PM     PM PM     PM PM
e|-------------------------------------------|
B|-------5---------4---------5---------7--5--|
G|-------4---------4---------4---------4--4--|
D|-------4---------4---------4---------4--4--|
A|-0---------0--0------0--0------0--0--------|
E|-------------------------------------------|

                       PM PM PM
e|----------------------------------------------------|
B|------------------------------5p-4------------------|
G|-4~~~----------------------4--------4---------------|
D|-4~~~-------------------4--------------4~~~~~~~-----|
A|-2~~~----------------2------------------------------|
E|----------------------------------------------------|

    PM     PM     PM                             W
e|--------------------------------------------------------|
B|-----12-----10-----9------------------------------------|
G|----------------------11~~~~~~-----8-h9--11==11b=====---|
D|--9------9------9---------------------------------------|
A|--------------------------------------------------------|
E|--------------------------------------------------------|

                            W
e|-----------------------------------------|
B|------------10p9-----------------------/-|
G|===.--11br-------9--11--11b===-r11~~-----|
D|-----------------------------------------|
A|-----------------------------------------|
E|-----------------------------------------|


e|----------12h14h16p14p12-14p12p11-----------------|
B|-12h14h16------------------------14p12p10\9h10h12-|
G|--------------------------------------------------|
D|--------------------------------------------------|
A|--------------------------------------------------|
E|--------------------------------------------------|

e|-11h12h14p12p11/9-12p11p9------------------------------|
B|--------------------------12p10p9-10p9-----------------|
G|---------------------------------------11p9p8-9p8-11p9-|
D|-------------------------------------------------------|
A|-------------------------------------------------------|
E|-------------------------------------------------------|

e|---------------------------------------|
B|---------------------------------------|
G|---------------------------------------|
D|-11p9p7-9h7-11p7-----------------------|
A|----------------11p9p7h9h11p9-6~~~~~---|
E|---------------------------------------|

    PM     PM     PM    PH                       W
e|--------------------------------------------------------|
B|-----12-----10-----9------------------------------------|
G|----------------------11~~~~~~-----8-h9--11==11b=====---|
D|--9------9------9---------------------------------------|
A|--------------------------------------------------------|
E|--------------------------------------------------------|

                             W
e|---------------------------------------|
B|------------10p9-----------------------|
G|===.--11b==.------9--11--11b===-r11~~--|
D|---------------------------------------|
A|---------------------------------------|
E|---------------------------------------|


e|---------------------------------17p12p9-19p12p9----------------|
B|-------------------------17p12p9----------------19p12p9-17p12p9-|
G|-----------------16p11p9----------------------------------------|
D|---------16p11p9------------------------------------------------|
A|-16p11p9--------------------------------------------------------|
E|----------------------------------------------------------------|


e|---------------------------------------------------------|
B|-16p12p9-------------------------------------------------|
G|---------16p11p9-14p11p9-13p11p9-14p11p9-16p11p9-14p11p9-|
D|---------------------------------------------------------|
A|---------------------------------------------------------|
E|---------------------------------------------------------|


e|----------------------------------------|
B|---------------------------/21-\--\-----|
G|-13p11p9-13p11p9-t/---/-----------------|
D|----------------------------------------|
A|----------------------------------------|
E|----------------------------------------|

    PM PM
e|---------------------------------------------------------|
B|---------------------------------------------------------|
G|--------11--11--9--8--9---8------------------------------|
D|-------------------------------11--/13-----9~~~~~~~------|
A|--9--9---------------------------------------------------|
E|---------------------------------------------------------|

                                            PM PM
e|--------------------------------------------------------|
B|--------------------------------------------------------|
G|-------------------------------------------------11--9--|
D|-6--6---9--9---------------------------------9----------|
A|--------------------6---7-----7b~~~~-\----9-------------|
E|--------------------------------------------------------|

                   PM  PM
e|------------------------------------------------------------|
B|----------------------------------9--10/--12b^~~~~~-12~--\--|
G|-8---9~~---8/-9------11----9--11----------------------------|
D|-----------------11-----------------------------------------|
A|------------------------------------------------------------|
E|------------------------------------------------------------|




CHORUS:


e|-/12-----11-----------------------------------------|
B|-------------12----------9--10/--12^~~~~------------|
G|-----------------11---------------------------------|
D|----------------------------------------------------|
A|----------------------------------------------------|
E|----------------------------------------------------|


e|------11--12/-14----12--14-/-16-------17--16------|
B|--12------------------------------------------16--|
G|--------------------------------------------------|
D|--------------------------------------------------|
A|--------------------------------------------------|
E|--------------------------------------------------|

          w
e|--x-------------------------------------------|
B|--x====17b=====^================r-17b==r~~~~\-|
G|--x-------------------------------------------|
D|----------------------------------------------|
A|----------------------------------------------|
E|----------------------------------------------|

                w
e|---------------------------------------------------|
B|-------16---19b===^================r-19b==r~~~---\-|
G|--/16-------x------------------------x-------------|
D|------------x------------------------x-------------|
A|---------------------------------------------------|
E|---------------------------------------------------|


e|-/12-----11-----------------------------------------|
B|-------------12----------9--10/--12^~~~~------------|
G|-----------------11---------------------------------|
D|----------------------------------------------------|
A|----------------------------------------------------|
E|----------------------------------------------------|


e|------11--12/-14----12--14-/-16-------17--16------|
B|--12------------------------------------------16--|
G|--------------------------------------------------|
D|--------------------------------------------------|
A|--------------------------------------------------|
E|--------------------------------------------------|

          w
e|--x---------------------------------------------|
B|--x====17b=====^================r-17b==r~~~~\---|
G|--x---------------------------------------------|
D|------------------------------------------------|
A|------------------------------------------------|
E|------------------------------------------------|

                                    w     w
e|--------------------------------19b=.-19b=====r-19~~~---|
B|-------16--17--19b==r19--17-----------------------------|
G|--/16---------------------------------------------------|
D|-----------------------------------------------------x\-|
A|-----------------------------------------------------x\-|
E|-----------------------------------------------------x\-|







             PM PM     PM PM     PM PM
e|-------------------------------------------|
B|-------5---------4---------5---------7--5--|
G|-------4---------4---------4---------4--4--|
D|-------4---------4---------4---------4--4--|
A|-0---------0--0------0--0------0--0--------|
E|-------------------------------------------|

             PM PM     PM PM     PM PM
e|-------------------------------------------|
B|-------5---------4---------5---------7--5--|
G|-------4---------4---------4---------4--4--|
D|-------4---------4---------4---------4--4--|
A|-4---------4--4------4--4------4--4--------|
E|-------------------------------------------|


             PM PM     PM PM     PM PM
e|-------------------------------------------|
B|-------5---------4---------5---------7--5--|
G|-------4---------4---------4---------4--4--|
D|-------4---------4---------4---------4--4--|
A|-0---------0--0------0--0------0--0--------|
E|-------------------------------------------|

             PM PM    PM PM           PM PM PM
e|-----------------------------------------------|
B|-------5---------4---------5-p4--------------5-|
G|-------4---------4---------------4--------4----|
D|-------4---------4---------------------4-------|
A|-4---------4--4-----4--4------------4----------|
E|-----------------------------------------------|



e|------------------------------------------------|
B|-/7~~~~----------------/-10~~---9---10-/--12----|
G|------------------------------------------------|
D|------------------------------------------------|
A|------------------------------------------------|
E|------------------------------------------------|


e|------------------------14------10-------------------|
B|--------9/-/12------12------12------9--12------------|
G|--9--11--------------------------------------9~~~----|
D|-----------------------------------------------------|
A|-----------------------------------------------------|
E|-----------------------------------------------------|

      PM                                 PH
e|------------------------------------------------------------|
B|------------------------------------------------------------|
G|-------8--9--/11~~~~------------11b.-11b^=========r-11~~~~--|
D|----9-------------------------------------------------------|
A|------------------------------------------------------------|
E|------------------------------------------------------------|

    PM PM PM PM
e|----------------------------------------------------------|
B|-----------9--10--9------10/--12~~~~---------10~~~~~------|
G|--------9------------9------------------------------------|
D|-----9----------------------------------------------------|
A|--7-------------------------------------------------------|
E|----------------------------------------------------------|

               w
e|------------------------------------------------|
B|--9---10---12b===============r12~~~~~-----------|
G|------------------------------------------------|
D|------------------------------------------------|
A|------------------------------------------------|
E|------------------------------------------------|


e|------------------------------------------------|
B|--10---12---12/-14~~~-14~~~-14~~~~~~~------\----|
G|------------------------------------------------|
D|------------------------------------------------|
A|------------------------------------------------|
E|------------------------------------------------|


e|----------------------------------------------|
B|--/15~~~~--14---15~~--\-----------------------|
G|-------------------------14-/16---\-/14~~-----|
D|----------------------------------------------|
A|----------------------------------------------|
E|----------------------------------------------|

      w                  w    w
e|------------------------------------------------------|
B|------------------------------------------------------|
G|--14b==================14===14=====r---13-------------|
D|--------------------------------------------14-/16----|
A|------------------------------------------------------|
E|------------------------------------------------------|


e|-------------------------------------------------------|
B|-------------------------------------------------------|
G|--------------14---13----------------------------------|
D|--13--14--16-------------11--13---14/-16--.--14-~~-\---|
A|-------------------------------------------------------|
E|-------------------------------------------------------|


e|--------------------------------------------------|
B|---------------17--17~~~---16~~~---17~~--19~~-\---|
G|--13----14~~--------------------------------------|
D|--------------------------------------------------|
A|--------------------------------------------------|
E|--------------------------------------------------|


Im not sure in this part, because,!!
I cant play two finger tapping..!!
But i guess it play like this..!!!  :p   have a try..


e|--------------------------------------------------0h7h10t14t17-|
B|-------------------------------------0h7h10t14t17--------------|
G|-------------------------0h7h9t14t16---------------------------|
D|-------------0h7h9t14t16---------------------------------------|
A|-0h7h9t14t16---------------------------------------------------|
E|---------------------------------------------------------------|


e|---------------------------------------------------------------|
B|0h7h10t14t17---------------------------------------------------|
G|-------------0h7h9t14t16---------------------------------------|
D|-------------------------0h7h9t14t16--------------0h9h11t16t18-|
A|-------------------------------------0h9h11t16t18--------------|
E|---------------------------------------------------------------|


e|-------------------------0h9h12t16t19--------------------------|
B|-------------0h9h12t16t19------------0h9h12t16t19--------------|
G|0h9h11t16t18--------------------------------------0h9h11t16t18-|
D|---------------------------------------------------------------|
A|---------------------------------------------------------------|
E|---------------------------------------------------------------|

    whammy Bar
e|--------------------------------------------|
B|--------------------------------------------|
G|--9v^===^v====v======v====v===v===v======---|
D|--------------------------------------------|
A|--------------------------------------------|
E|--------------------------------------------|

      Whammy Bar           Whammy Bar
      5                    3
e|----------------------------------------------|
B|----------------------------------------------|
G|--0-NH==============---0-NH================---|
D|----------------------------------------------|
A|----------------------------------------------|
E|----------------------------------------------|

    PM PM
e|---------------------------------------------------------|
B|---------------------------------------------------------|
G|--------11--11--9--8--9---8------------------------------|
D|-------------------------------11--/13-----9~~~~~~~------|
A|--9--9---------------------------------------------------|
E|---------------------------------------------------------|

                                PH          PM PM
e|-------------------------------------------------------|
B|-------------------------------------------------------|
G|-------------------------------------------------11--9-|
D|-6--6---9--9---------------------------------9---------|
A|--------------------6---7-----7^~~~~-\----9------------|
E|-------------------------------------------------------|


e|------------------------------------------------------7-12/14--|
B|----------------------------------------------------9----------|
G|-8---9~~---8/-9-----------------------------------9------------|
D|-------------------11--9------------------------9--------------|
A|--------------------------9------9--7--9-----11----------------|
E|---------------------------------------------------------------|




CHORUS:


e|-/12-----11-----------------------------------------|
B|-------------12----------9--10/--12^~~~~------------|
G|-----------------11---------------------------------|
D|----------------------------------------------------|
A|----------------------------------------------------|
E|----------------------------------------------------|


e|------11--12/-14----12--14-/-16-------17--16------|
B|--12------------------------------------------16--|
G|--------------------------------------------------|
D|--------------------------------------------------|
A|--------------------------------------------------|
E|--------------------------------------------------|

        w
e|--x-------------------------------------------|
B|--x===17b=====^================r-17b==r~~~~\--|
G|--x-------------------------------------------|
D|----------------------------------------------|
A|----------------------------------------------|
E|----------------------------------------------|


e|----------------------------------------10----12---14--|
B|-------16--17--19b==r19--17----16---\------------------|
G|--/16--------------------------------------------------|
D|-------------------------------------------------------|
A|-------------------------------------------------------|
E|-------------------------------------------------------|

   G

e|-15-----14------------------------------------------|
B|------------15----------12--13/--15^~~~~------------|
G|----------------14----------------------------------|
D|----------------------------------------------------|
A|----------------------------------------------------|
E|----------------------------------------------------|


e|------14--15/-17----15--17-/-19-------20--19------|
B|--15------------------------------------------19--|
G|--------------------------------------------------|
D|--------------------------------------------------|
A|--------------------------------------------------|
E|--------------------------------------------------|

          w
e|--x-------------------------------------------|
B|--x===20b=====^================r-20b==r~~~~\--|
G|--x-------------------------------------------|
D|----------------------------------------------|
A|----------------------------------------------|
E|----------------------------------------------|

                                    w      w
e|-------------------------------------------------------|
B|-------19--20--22b==r22--20-----22br===22b=====r-22~~~-|
G|--/19--------------------------------------------------|
D|-------------------------------------------------------|
A|-------------------------------------------------------|
E|-------------------------------------------------------|


e|-15-----14------------------------------------------|
B|------------15----------12--13/--15^~~~~------------|
G|----------------14----------------------------------|
D|----------------------------------------------------|
A|----------------------------------------------------|
E|----------------------------------------------------|


e|------14--15/-17----15--17-/-19-------20---19---20---22-|
B|--15----------------------------------------------------|
G|--------------------------------------------------------|
D|--------------------------------------------------------|
A|--------------------------------------------------------|
E|--------------------------------------------------------|

                    w
e|--22~~~~~~------22b==r-22~~~~---------------------------|
B|---------------------------------22b==r-22~~--r20---19--|
G|--------------------------------------------------------|
D|--------------------------------------------------------|
A|--------------------------------------------------------|
E|--------------------------------------------------------|


e|--------------------------------------------------------|
B|--20----19-----17---15-----13----12---------------------|
G|--------------------------------------12~~~~~~~------x\-|
D|-----------------------------------------------------x\-|
A|-----------------------------------------------------x\-|
E|--------------------------------------------------------|


e|--------------------------------------------------------|
B|--------------------------------------------------------|
G|---12--12---12--12-------------Kurikinton-FoX-----------|
D|---12--12---12--12----------------The End---------------|
A|---10--10---10--10--------------------------------------|
E|--------------------------------------------------------|




Tablature Legend:

  h      -- hammer on
  p      -- pull off
  b      -- bend
  r      -- bend release
  ===    -- bend hold or maintain
  ^      -- bend a little, or dec/increase the bend slightly
  w      -- Whole (Bend, Ring Etc....)
  /,\    -- slide (toward, forward)
  ~      -- let ring
  x      -- Muted string then pick it, Or Scratch
  PH     -- Pinch Harmonic
  TH     -- Tap Harmonic
  NH     -- Natural Harmonic
  PM     -- Palm Muted
  T      -- Tap
  Tr     -- Trill



                For any comments, suggestions, corrections, request
                love letter or even death threats
                just send me message on FaceBook..!!!!
                Hope my simple tab helps you...
=====================================================================
  Tabbed by   : Nazo Dela Reka
      Email   : nazo_dela_reka@yahoo.com
                Calinan Davao City, Phillipines...
                add me in Facebook..!! hehe... acheche..!!!
=====================================================================
Добавлено: 13.11.2013
Вам также может быть интересно:
Другие материалы по этой песне:

Страница создана 05.03.2012
http://primanota.ru/kurikinton-fox/overdrive-chords.htm
Привет, Гость.
Предлагаем пройти революционный курс по гитаре.
Подарок от PrimaNota.Ru, забирай!