PrimaNota.ru - самый крупный в мире бесплатный архив песенных текстов, аккордов, табулатур и нот


Kurikinton Fox - A Cruels Angel Thesis - таба, видео

Регистрация Запомнить меня
Войти через:  Facebook Google Twitter Vk Yandex Mail.ru

Kurikinton Fox - A Cruels Angel Thesis - таба, видео

Печатать
Просмотров: 70
Song Title   : A Cruel's Angel Thesis
Artist       : Kurikinton Fox
Discription  : Theme of Neon Genesis Evangelion
               played in guitar..!!!



                                           W
e|----------------------------------------------------------|
B|----------------------------------------------------------|
G|-------3/--5--------------8-------------8b====--r=8---10--|
D|----------------------------------------------------------|
A|----------------------------------------------------------|
E|----------------------------------------------------------|

e|----------------------------------------------------------|
B|---------------11----9----8----6----8~~~~~--------\--3----|
G|---10----10-----------------------------------------------|
D|----------------------------------------------------------|
A|----------------------------------------------------------|
E|----------------------------------------------------------|


e|----------------------------------------------------|
B|---8--------------11--------------13----------------|
G|-----------------------------------------10----8----|
D|----------------------------------------------------|
A|----------------------------------------------------|
E|----------------------------------------------------|

                                     w
e|------------------------------------------------------------|
B|-11----11----6----11----11---------11b==rb===rb==11rb=====--|
G|-----------------------------------x------------------------|
D|------------------------------------------------------------|
A|------------------------------------------------------------|
E|------------------------------------------------------------|

     w
e|--------------------------------------|
B|=11b~~~~~~~~~~------------------------|
G|--------------------------------------|
D|--------------------x-\---------------|
A|--------------------x-\---------------|
E|--------------------x-\---------------|



==============================================================

BASS LINE: / Keyboard

e|------------------------------------------|
B|------------------------------------------|
G|------------------------------------------|
D|------------------------------------------|
A|------------------------------------------|
E|------------------------------------------|

==============================================================




Verse:



e|--------------------------------------------------|
B|--------------------------------------------------|
G|----8----------------------8---8---10-------------|
D|---------8---8~~~~----------------------8---8~~~~-|
A|--------------------------------------------------|
E|--------------------------------------------------|


e|-------------------------------------------------------|
B|--------8---9--8----------------8---9--8---------------|
G|-------------------8---10---8--------------------------|
D|----8---------------------------------------10~~~~~~---|
A|-------------------------------------------------------|
E|-------------------------------------------------------|

    PM PM                        PM PM
e|--------------------------------------------------------|
B|--------------------------------------9---8-------------|
G|--------8---8---7~--7~~~-------8--10----------10---8~~~-|
D|--8--8--------------------------------------------------|
A|--------------------------------------------------------|
E|--------------------------------------------------------|


e|---------------------------------------------|
B|~~-------------------------------------------|
G|------/12---12---10----9---10----------------|
D|---------------------------------10~~--10~~--|
A|---------------------------------------------|
E|---------------------------------------------|

      PH
e|----------------------------|
B|----------------------------|
G|----------------------------|
D|----12~~~~~~~~--------------|
A|----------------------------|
E|----------------------------|


e|--------------------------------------------------|
B|--------------------------------------------------|
G|----8----------------------8---8---10-------------|
D|---------8---8~~~~----------------------8---8~~~~-|
A|--------------------------------------------------|
E|--------------------------------------------------|


e|-------------------------------------------------------|
B|--------8---9--8----------------8---9--8---------------|
G|-------------------8---10---8--------------------------|
D|----8---------------------------------------10~~~~~~---|
A|-------------------------------------------------------|
E|-------------------------------------------------------|

    PM PM                        PM PM
e|--------------------------------------------------------|
B|--------------------------------------9---8-------------|
G|--------8---8---7~--7~~~-------8--10----------10---8~~~-|
D|--8--8--------------------------------------------------|
A|--------------------------------------------------------|
E|--------------------------------------------------------|


e|--------------------------------------------------------|
B|--------------------------------------------------------|
G|--12---12---10----8---10---12---13---12~~~~~~~~~~~------|
D|--------------------------------------------------------|
A|--------------------------------------------------x-----|
E|--------------------------------------------------19\\--|x


e|----------------------------------------------------|
B|----------------------------------------------------|
G|-------8---8----7---8---8---7---10---10---8---7---5-|
D|----------------------------------------------------|
A|----------------------------------------------------|
E|----------------------------------------------------|

                                            w
e|------------------------------------------------------|
B|------------------------------------------------------|
G|--7---8---8---7----10---7-----------------------------|
D|----------------------------10---8~~~----\.-----------|
A|------------------------------------------------------|
E|------------------------------------------------------|


e|-------------------------------------------------------------|
B|-------------------------------------------------------------|
G|-3/=======8---8----7---8---8---7---10---10---8---7---8---10--|
D|-------------------------------------------------------------|
A|-------------------------------------------------------------|
E|-------------------------------------------------------------|


e|------------------------------------------------|
B|------------------------------------------------|
G|-12---13---12---10---8---10----12b~~~~~~--------|
D|------------------------------------------------|
A|------------------------------------------x\=---|
E|------------------------------------------x\=---|


Chorus:


e|----------------------------------------------------|
B|----------------------------------------11---9---8--|
G|---5-----8-----10---8----10---10---10---------------|
D|----------------------------------------------------|
A|----------------------------------------------------|
E|----------------------------------------------------|


e|-------------------------------------------|
B|-6---8---\4.-----8----11----13-------------|
G|---------------------------------10---8----|
D|-------------------------------------------|
A|-------------------------------------------|
E|-------------------------------------------|


e|---------------------------------------------|
B|---------------------------------------------|
G|-7---7----5---7----10---8---8------\3.-------|
D|---------------------------------------------|
A|---------------------------------------------|
E|---------------------------------------------|


e|----------------------------------------------------|
B|----------------------------------------11---9---8--|
G|---5-----8-----10---8----10---10---10---------------|
D|----------------------------------------------------|
A|----------------------------------------------------|
E|----------------------------------------------------|


e|-------------------------------------------|
B|-6---8---\4.-----8----11----13-------------|
G|---------------------------------10---8----|
D|-------------------------------------------|
A|-------------------------------------------|
E|-------------------------------------------|


e|------------------------------------|
B|--11---11----9---11---11---13----\--|
G|------------------------------------|
D|------------------------------------|
A|------------------------------------|
E|------------------------------------|


e|----------------------------------------------------|
B|----------------------------------------11---9---8--|
G|---5-----8-----10---8----10---10---10---------------|
D|----------------------------------------------------|
A|----------------------------------------------------|
E|----------------------------------------------------|


e|-------------------------------------------|
B|-6---8---\4.-----8----11----13-------------|
G|---------------------------------10---8----|
D|-------------------------------------------|
A|-------------------------------------------|
E|-------------------------------------------|


e|------------------------------------|
B|--11---11----8---11---11---13-------|
G|------------------------------------|
D|--8----8-----5---9----9----10-------|
A|------------------------------------|
E|------------------------------------|


Bridge:


e|-----------------------------------------------|
B|--x--------------------------------------------|
G|--20b================r20~~~~~------15----13----|
D|--x--------------------------------------------|
A|-----------------------------------------------|
E|-----------------------------------------------|


     wah-wah
e|--------------------------------|
B|--------------------------------|
G|---13---10--12~~~~~~~~----------|
D|--------------------------------|
A|--------------------------------|
E|--------------------------------|

     wah-wah
e|------------------------------------------|
B|------------------------------------------|
G|---10h-12---7~~~~~~~--------------\===3---|
D|------------------------------------------|
A|------------------------------------------|
E|------------------------------------------|


    wah-wah
e|--------2h3h5---t8---5p3p2-2h3h5--t10---|
B|--2h3h5---------------------------------|
G|----------------------------------------|
D|----------------------------------------|
A|----------------------------------------|
E|----------------------------------------|



e|--5p3p2-2h3h5--t8---5p3p2-2h3h5--t10--t10p5p3p2-|
B|------------------------------------------------|
G|------------------------------------------------|
D|------------------------------------------------|
A|------------------------------------------------|
E|------------------------------------------------|



e|----5h7h8-t10--5h7h8-t11--5h7h8-t13--5h7h8-t11-|
B|-----------------------------------------------|
G|-----------------------------------------------|
D|-----------------------------------------------|
A|-----------------------------------------------|
E|-----------------------------------------------|


e|--5h7h8-t10-5h7h8-t11-5h7h8-t13-5h7h8-t11--------|
B|-------------------------------------------------|
G|-------------------------------------------------|
D|---------------------------------------------x\--|
A|---------------------------------------------x\--|
E|---------------------------------------------x\--|


e|-----------------6-11p6--11/13--10-----------------|
B|---------------8-------------------11--------------|
G|-------------8------------------------10-----------|
D|-----------8------------------------------13-10----|
A|-----8--10--------------------------------------11-|
E|--6------------------------------------------------|


e|---------------------11-16p11-16/18-15-------|
B|------------------13-------------------16----|
G|---------------13-------------------------15-|
D|------------13-------------------------------|
A|-15--11--15----------------------------------|
E|---------------------------------------------|


e|----15--18------16------15-----------------------------|
B|-16---------------------------16/--18~~~----16~~~~~~---|
G|-------------------------------------------------------|
D|-------------------------------------------------------|
A|-------------------------------------------------------|
E|-------------------------------------------------------|


e|--16--15--------------15-h16p-15h-18p--15h-16p--15h-|
B|----------16------16--------------------------------|
G|--------------15------------------------------------|
D|----------------------------------------------------|
A|----------------------------------------------------|
E|----------------------------------------------------|


e|-------------15--16p15-16p15-------------------------|
B|-16------16------------------16p15-------------------|
G|-----15-----------------------------15p-13p-12---13--|
D|-----------------------------------------------------|
A|-----------------------------------------------------|
E|-----------------------------------------------------|


e|----------------------------------------------|
B|----------------------------------------------|
G|--12-----10---------8-------/----/-15~~~~-----|
D|----------------------------------------------|
A|----------------------------------------------|
E|----------------------------------------------|


e|----------------------------------------------|
B|----------------------------------------------|
G|-15br~~~-15br~~~-15br~~~~~~~~~~~--------------|
D|----------------------------------------------|
A|----------------------------------------------|
E|----------------------------------------------|



Instrumental: Keyboard/
==============================================================

e|------------------------------------------|
B|------------------------------------------|
G|------------------------------------------|
D|------------------------------------------|
A|------------------------------------------|
E|------------------------------------------|

e|------------------------------------------|
B|------------------------------------------|
G|------------------------------------------|
D|------------------------------------------|
A|------------------------------------------|
E|------------------------------------------|

=============================================================



e|------------------------------------------|
B|------------------------------------------|
G|------------------------------------------|
D|---5---------------------4----------------|
A|---3---------------------2----------------|
E|------------------------------------------|


e|-------------------------------------------------------|
B|-------------------------------------------------------|
G|-------------------------------------------------------|
D|-------------------------------------------------------|
A|--x\-------------3--5--6--5--3-----------------3--5--6-|
E|--x\----3--4--6-----------------6--4--3--4--6----------|

e|------------------------------------------------|
B|------------------------------------------------|
G|----------------------------------------3--5--7-|
D|-3--5--6--5--3-----------------3--5--6----------|
A|----------------6--5--3--5--6-------------------|
E|------------------------------------------------|


e|-------------------------------------------------|
B|-------------------------------------------------|
G|--8---8----7---8---8---7---10---10---8---7---5---|
D|-------------------------------------------------|
A|-------------------------------------------------|
E|-------------------------------------------------|

                                            w
e|------------------------------------------------------|
B|------------------------------------------------------|
G|--7---8---8---7----10---7-----------------------------|
D|----------------------------10---8~~~----\.-----------|
A|------------------------------------------------------|
E|------------------------------------------------------|


e|--------------------------------------------------------|
B|--------------------------------------------------------|
G|-3/=======8---8----7---8---8---7---10---10---8---7--10--|
D|--------------------------------------------------------|
A|--------------------------------------------------------|
E|--------------------------------------------------------|


e|------------------------------------------------|
B|------------------------------------------------|
G|-12---13---12---10---8---10----10b======--------|
D|------------------------------------------------|
A|------------------------------------------x\=---|
E|------------------------------------------x\=---|



Chorus2:



e|----------------------------------------------------|
B|----------------------------------------11---9---8--|
G|---5-----8-----10---8----10---10---10---------------|
D|----------------------------------------------------|
A|----------------------------------------------------|
E|----------------------------------------------------|


e|-------------------------------------------|
B|-6---8---\4.-----8----11----13-------------|
G|---------------------------------10---8----|
D|-------------------------------------------|
A|-------------------------------------------|
E|-------------------------------------------|


e|-------------------------------------|
B|-------------------------------------|
G|--7---7----5---7----10---8---8----\--|
D|-------------------------------------|
A|-------------------------------------|
E|-------------------------------------|


e|----------------------------------------------------|
B|----------------------------------------11---9---8--|
G|---5-----8-----10---8----10---10---10---------------|
D|----------------------------------------------------|
A|----------------------------------------------------|
E|----------------------------------------------------|


e|-------------------------------------------|
B|-6---8---\4.-----8----11----13-------------|
G|---------------------------------10---8----|
D|-------------------------------------------|
A|-------------------------------------------|
E|-------------------------------------------|


e|------------------------------------------------------|
B|--11---11----8---11---11---13------------------11==\--|
G|-----------------------------------------------12==\--|
D|--8----8-----5---9----9----10------------------x------|
A|-----------------------------------------------x------|
E|------------------------------------------------------|


e|--------------------------------------|
B|-9/--11---9---8-----------------------|
G|------------------10~~~~~~-------8----|
D|--------------------------------------|
A|--------------------------------------|
E|--------------------------------------|

e|----------------------------------------|
B|----------------------------------------|
G|--8---7h-8p7-7h-8p7---------------------|
D|---------------------10p-8--------------|
A|-----------------------------8~~~~~~----|
E|----------------------------------------|

e|--------------------------------------|
B|--------------------------------------|
G|--------------------------------------|
D|--------------------------------------|
A|--6------5----6--/-8---8~~---6----\---|
E|--------------------------------------|


e|--------------------------------------------8-|
B|-------------------------------8--9-----10----|
G|------------7--8--6--5--10--9--------8--------|
D|---------7------------------------------------|
A|---5--8---------------------------------------|
E|----------------------------------------------|


e|-11--10--9--8---------------------------------|
B|---------------12--10--9--9--11-----10--9--8--|
G|---------------------------------8------------|
D|----------------------------------------------|
A|----------------------------------------------|
E|----------------------------------------------|


e|---------------------------------------------------|
B|--------9p=8==8--========9-----=========8----------|
G|-10--8------==8--========8-----=========8----------|
D|---------------------------------------------------|
A|-----------------------------------------------x\--|
E|-----------------------------------------------x\--|

                              W
e|--------------------------------------|
B|--------------------------------------|
G|--------------------------------------|
D|----8---8---5----8---8----10----------|
A|----8---8---5----8---8----10----------|
E|----6---6---3----6---6----8-----------|




Tablature Legend:

  h      -- hammer on
  p      -- pull off
  b      -- bend
  r      -- bend release
  ===    -- bend hold or maintain
  ^      -- bend a little, or dec/increase the bend slightly
  w      -- Whole (Bend, Ring Etc....)
  /,\    -- slide (toward, forward)
  ~      -- let ring
  x      -- Muted string then pick it, Or Scratch
  PH     -- Pinch Harmonic
  TH     -- Tap Harmonic
  NH     -- Natural Harmonic
  PM     -- Palm Muted
  T      -- Tap
  Tr     -- Trill



                For any comments, suggestions, corrections, request
                love letter or even death threats
                just send me message on FaceBook..!!!!
                Hope my simple tab helps you...
=====================================================================
  Tabbed by   : Nazo Dela Reka
      Email   : nazo_dela_reka@yahoo.com
                Calinan Davao City, Phillipines...
                add me in Facebook..!! hehe... acheche..!!!
=====================================================================
Добавлено: 27.06.2013
Вам также может быть интересно:
Другие материалы по этой песне:
  • Аккорды и текст

Страница создана 27.06.2013
http://primanota.ru/kurikinton-fox/a-cruels-angel-thesis-chords.htm
Привет, Гость.
Предлагаем пройти революционный курс по гитаре.
Подарок от PrimaNota.Ru, забирай!