PrimaNota.ru - самый крупный в мире бесплатный архив песенных текстов, аккордов, табулатур и нот


Курехин Сергей - 40' 55' 000 - аккорды и текст

Регистрация Запомнить меня
Войти через:  Facebook Google Twitter Vk Yandex Mail.ru

Курехин Сергей - 40' 55' 000 - аккорды и текст

Печатать
Просмотров: 172
40' 55' 000
Курехин Сергей
Эффект микрофазии возникает в момент смещения, собственно, представлений о том мире, который у нас возникает благодаря традиции и знанию некоторых основ того фонологического ряда, который мы можем воспринимать как язык. Но я имею здесь ввиду не язык как речь, а язык как составляющую совершенно конкретной образной символики погружения, собственно, в мир объектов, в мир -- я бы даже отторгнул кантианскую вещь в себе, потому что она здесь не играет уже никакой роли, т.е. афазия, т.е. микроафазия, в данном случае мы говорим о микроафазии как об основном проявлении теории квадратуры. Значит, микроафазия возникает в моменты взаимодействия смысловых точек, смысловых отправных точек с проявлениями их во внешней среде, и человек является здесь одним из самых важных звеньев, я бы даже сказал, посредником между возникновением апофатических состояний и афатических условий возникновения речи.
 
E E+7 A H7 - 4p.

   Em    Am H7  Em    Am H7 Em    Am H7  Gm    H7
E----0--3-3-2--------0--3-7-5-2------0--3-3-2-3-5-6--5-6-7-
H-0------------4----0-------------4--0-----------------------------
G-----------------4-------------------------------------------------- - 2p.
D---------------------------------------------------------------------
A---------------------------------------------------------------------
E---------------------------------------------------------------------

  Em Am  H7    Em Am    H7       Em          H7            Gm       H7
E-7----6-7-10-9--7------------12-11-7-10-9-7-8-7-7-5--------7-6-----5-6-7-8-7-5----
H------------------8------11-12------------------------8-----8-7-8------------------------8-7
G-------------------------------------------------------------------------------------------------- - 2p.
D--------------------------------------------------------------------------------------------------
A--------------------------------------------------------------------------------------------------
E--------------------------------------------------------------------------------------------------

   Em    Am H7  Em    Am H7 Em    Am H7  Gm    H7
E----0--3-3-2--------0--3-7-5-2------0--3-3-2-3-5-6--5-6-7-8-7-5----
H-0------------4----0-------------4--0------------------------------------8-7
G-----------------4------------------------------------------------------------- 
D--------------------------------------------------------------------------------
A--------------------------------------------------------------------------------
E--------------------------------------------------------------------------------

   Em    Am H7  Em    Am H7 Em    Am H7  Gm    H7
E----0--3-3-2--------0--3-7-5-2------0--3-3-2-3-5-6--5-6-7-
H-0------------4----0-------------4--0-----------------------------
G-----------------4-------------------------------------------------- 
D---------------------------------------------------------------------
A---------------------------------------------------------------------
E---------------------------------------------------------------------

  Em Am  H7    Em Am    H7       Em          H7            Gm       H7
E-7----6-7-10-9--7------------12-11-7-10-9-7-8-7-7-5--------7-6-----5-6-7-
H------------------8------11-12------------------------8-----8-7-8-----------------
G----------------------------------------------------------------------------------------
D----------------------------------------------------------------------------------------
A----------------------------------------------------------------------------------------
E----------------------------------------------------------------------------------------

  Em Am  H7    Em Am    H7       Em          H7            Gm       H7
E-7----6-7-10-9--7------------12-11-7-10-9-7-8-7-7-5--------7-6-----5-6-7-8-7-5----
H------------------8------11-12------------------------8-----8-7-8------------------------8-7
G-------------------------------------------------------------------------------------------------- 
D--------------------------------------------------------------------------------------------------
A--------------------------------------------------------------------------------------------------
E--------------------------------------------------------------------------------------------------

E E+7 A H7 - 4p.

  Em Am  H7    Em Am    H7       Em          H7            Gm       H7
E-7----6-7-10-9--7------------12-11-7-10-9-7-8-7-7-5--------7-6-----5-6-7-8-7-5----
H------------------8------11-12------------------------8-----8-7-8------------------------8-7
G-------------------------------------------------------------------------------------------------- - 2p.
D--------------------------------------------------------------------------------------------------
A--------------------------------------------------------------------------------------------------
E--------------------------------------------------------------------------------------------------

   Em    Am H7  Em    Am H7 Em    Am H7  Gm    H7
E----0--3-3-2--------0--3-7-5-2------0--3-3-2-3-5-6--5-6-7-8-7-5----
H-0------------4----0-------------4--0------------------------------------8-7
G-----------------4------------------------------------------------------------- 
D--------------------------------------------------------------------------------
A--------------------------------------------------------------------------------
E--------------------------------------------------------------------------------

   Em    Am H7  Em    Am H7 Em    Am H7  Gm    H7
E----0--3-3-2--------0--3-7-5-2------0--3-3-2-3-5-6--5-6-7-
H-0------------4----0-------------4--0-----------------------------
G-----------------4-------------------------------------------------- Em E E
D---------------------------------------------------------------------
A---------------------------------------------------------------------
E---------------------------------------------------------------------

E [022100]
E+7 [022140]
Am [x02210]
H7 [x21202]
Gm [35333]





Добавлено: 30.01.2014
Другие материалы по этой песне:
  • Аккорды и текст

Страница создана 30.01.2014
http://primanota.ru/kurexin-sergei/40-55-000-chords.htm
Привет, Гость.
Предлагаем пройти революционный курс по гитаре.
Подарок от PrimaNota.Ru, забирай!