PrimaNota.ru - самый крупный в мире бесплатный архив песенных текстов, аккордов, табулатур и нот


Kurban - Yalan - таба, бас-таба, видео

Регистрация Запомнить меня
Войти через:  Facebook Google Twitter Vk Yandex Mail.ru

Kurban - Yalan - таба, бас-таба, видео

Печатать
Просмотров: 148
Intro:
e|------------------------------------------|
B|------------------------------------------|
G|------------------------------------------|
D|-----------------------2---2--------------|
A|-------2-3---5---5-3---------3---5-5-3-2--|
E|---3--------------------------------------|

Riff A:
e|------------------------------------------|
B|------------------------------------------|
G|---------5-5-5-5-5-5/7-7-7\-5-5-5-5-5-5---|
D|---5-5-5-5-5-5-5-5-5/7-7-7\-5-5-5-5-5-5---|
A|---5-5-5-3-3-3-3-3-3/5-5-5\-3-3-3-3-3-3---|
E|---3-3-3----------------------------------|

Riff B:
e|---------------------------------------------|
B|---------------------------------------------|
G|-------------------------5-5-5-5-5-5-5-5-----|
D|---5-5-5-5-5-5-5-5-5-5-5-5-5-5-5-5-----------|
A|---5-5-5-5-5-5-5-5-3-3-3-3-3-3-3-3-----------|
E|---3-3-3-3-3-3-3-3---------------------------|

Riff C:
e|-------------------------------------------|
B|-------------------------------------------|
G|---7-7-7-7--5---5---5----------------------|
D|---7-7-7-7--5---5---5--5-5-5-5-5-5---------|
A|---5-5-5----3---3---3--5-5-5-5-5-5---------|
E|---------------------------3-3-3-3-3-3-----|

Riff D:
e|-------------------------------------|
B|--7-7-8-7---5---5---5--3--3--5--3----|
G|-------------------------------------|
D|-------------------------------------|
A|-------------------------------------|
E|-------------------------------------|

Riff E:
e|-----------------------------------3---------|
B|--7-7-8-7---5---5---5--3--3-----3-3----------|
G|---------------------------------------------|
D|---------------------------------------------|
A|---------------------------------------------|
E|---------------------------------------------|

Fill:
e|-----------------------|
B|-----------------------|
G|--5-4-0--5-4-----------|
D|-----------------4-4---|
A|-----------------------|
E|-----------------------|

Riff F:
e|---------------------------------------------------|
B|---------------------------------------------------|
G|---------------------------------------------------|
D|-----------0---2---2-0---4---4-0---2-2-0-----------|
A|---0---4--------------------------------------4----|
E|---------------------------------------------------|

Riff G:
e|------------------------------------------|
B|------------------------------------------|
G|---------7-7-7-7-7-7/9-9-9\-7-7-7-7-7-7---|
D|---7-7-7-7-7-7-7-7-7/9-9-9\-7-7-7-7-7-7---|
A|---7-7-7-5-5-5-5-5-5/7-7-7\-5-5-5-5-5-5---|
E|---5-5-5----------------------------------|


Order:

Intro           x 2
Intro  + Riff A x 4
Riff B          x 4 (Palm Mute)
Riff C + Riff D x 1
Riff C + Riff E x 1
Riff C + Riff D x 1
Riff C + Riff E x 1
Fill
Riff A          x 4
Riff F + Riff G x 2
Riff B          x 4 (Palm Mute)
Riff C + Riff D x 1
Riff C + Riff E x 1
Riff C + Riff D x 1
Riff C + Riff E x 1
Riff A          x 4
Riff A          x 4 (Palm Mute)
Riff A          x ...
Добавлено: 07.04.2012
Другие материалы по этой песне:

Страница создана 21.02.2012
http://primanota.ru/kurban/yalan-chords.htm
Привет, Гость.
Предлагаем пройти революционный курс по гитаре.
Подарок от PrimaNota.Ru, забирай!