PrimaNota.ru - самый крупный в мире бесплатный архив песенных текстов, аккордов, табулатур и нот


Kurban - Sari Cizmeli Mehmet Aga - таба, видео

Регистрация Запомнить меня
Войти через:  Facebook Google Twitter Vk Yandex Mail.ru

Kurban - Sari Cizmeli Mehmet Aga - таба, видео

Печатать
Просмотров: 128
Уроки эстрадного вокала в Санкт-Петербурге
Guitar-1
----------------------------------------------------------------------------------------------|
----------------------------------------------------------------------------------------------|
--------------------------------------------------------------------------------9-------------|
-2-4--2-4--2-4--2-4--2--------------9-9-----------------------9-9-----------------12-12-11----|
-2-4--2-4--2-4--2-4--2---9-10-9-12-9-9--12-10-9-9I-9-10-9-12-9-9-12-10-9-9--9-9---------------|
-0-2--0-2--0-2--0-2--0------------------------------------------------------------------------|


----------------------------------------------------------------------------------------------|
----------------------------------------------------------------------------------------------|
----------------------------------------------------------------------------------------------|
-11-9----9-9----------------------9---9-----------------------9--9-----------------------9----|
------12-----12-10-9I-9-10-9-12-9---9---12-10-9-9I9-10-9-12-9---9-12-10-9-9I9-10-9-12-9---9---|
----------------------------------------------------------------------------------------------|


----------------------------------------------------------------------------------------------|
----------------------------------------------------------------------------------------------|
-------------------9--------------------------------------------------------------------------|
-9-------------------12-12-11-11-9----9-9-----------------2-4-x-x-4-2-2-4-x-x-2-4-x-4-2-2-4-x-|
---12-10-9-9--9-9------------------12-----12-10--9I9--21I-2-4-x-x-4-2-2-4-x-x-2-4-x-4-2-2-4-x-|
----------------------------------------------------------0-2-x-x-2-0-0-2-x-x-0-2-x-2-0-0-2-x-|


------------------------------------------------------------------------------------------------|
------------------------------------------------------------------------------------------------|
--------------------------------------------------------------4---------------------------------|
-2-4-x-4-2-2-4--------------------------2-4-4-2-2-4-----------4-4-5-7--I-----------------40-----|
-2-4-x-4-2-2-4-*-*-*-*-*I-7-9-9-----9-I-2-4-4-2-2-4-*-*-*-*-*-2-4-5-7----4---4---4---4------40--|
-0-2-x-2-0-0-2------------------0-0-----0-2-2-0-0-2-------------2-3-5----0-2-0-2-0-2-0-2--------|

                          (4 times)       (verses)       yaz dostum..    Chorus:
----------------------------------------------------------------------------|
----------------------------------------------------------------------------|
----------------------------------------------------------------------------|
-4-4-4-4-4-4----------------------------------------------------------------|
-0-2-0-2-0-2-5---5---5------------------------------------------------------|
-------------0-3-0-3-0-3----------------------------------------------------|
(Chorus)
Добавлено: 06.04.2012
Другие материалы по этой песне:

Страница создана 06.04.2012
http://primanota.ru/kurban/sari-cizmeli-mehmet-aga-chords.htm
Привет, Гость.
Предлагаем пройти революционный курс по гитаре.
Подарок от PrimaNota.Ru, забирай!