PrimaNota.ru - самый крупный в мире бесплатный архив песенных текстов, аккордов, табулатур и нот


Kurban - Misafir - таба, видео

Регистрация Запомнить меня
Войти через:  Facebook Google Twitter Vk Yandex Mail.ru

Kurban - Misafir - таба, видео

Печатать
Просмотров: 65
Уроки эстрадного вокала в Санкт-Петербурге
It's just intro I will post the whole song after it 



In standard tuning 

Kurban - Misafir 

e|-------------------|-----------------------|---------------------|
B|---------10--------|----------10h12p-------|-----10--------------|
G|------11----11-9---|-------11------11------|-------11-9----------|
D|----9--------------|-----9----------- 9----|---------------------|
A|-------------------|-----------------------|---------------------|
E|-------------------|-----------------------|---------------------|


e --------------------------------------------------------|
b-------------10-----------10------------10br-------------|
g---------11-----11--10------11--10-----------------------| 
d------9--------------------------------------------------|
a---------------------------------------------------------|
e---------------------------------------------------------| 
Добавлено: 04.08.2015
Другие материалы по этой песне:
  • Аккорды и текст

Страница создана 04.08.2015
http://primanota.ru/kurban/misafir-chords.htm
Привет, Гость.
Предлагаем пройти революционный курс по гитаре.
Подарок от PrimaNota.Ru, забирай!