PrimaNota.ru - самый крупный в мире бесплатный архив песенных текстов, аккордов, табулатур и нот


Kultur Shock - Seamstress And The Officers - таба, видео

Регистрация Запомнить меня
Войти через:  Facebook Google Twitter Vk Yandex Mail.ru

Kultur Shock - Seamstress And The Officers - таба, видео

Печатать
Просмотров: 89
Уроки эстрадного вокала в Санкт-Петербурге
Listen to the song for rhythm i.e. length of the notes.
Have fun with it!

1:37-1:43

e|----------------------------------------------------------------- |
B|-----9h10p9----9--------------9-10-12--9h10p9----9--------------- |
G|------------10---10p9----9-10-----------------10---10p9----9-9-9- |
D|----------------------12--------------------------------12------- |  x2
A|----------------------------------------------------------------- |
E|----------------------------------------------------------------- |


1:43-1:50

e|-----------------------------------------------------------------|
B|--------9p10---------9-10-12-10-12----9p10---------10-9-10-12-10-|
G|------9------10p9-------------------9------10p9------------------|
D|------------------12----------------------------12---------------|
A|-----------------------------------------------------------------|
E|-----------------------------------------------------------------|

e|-----------------------------------------------------------------|
B|--------12-10-9---------9-10-12-10-12----12-10-9-----------------|
G|------9---------10-9-------------------9---------10-9-----9-9-9--|
D|---------------------12--------------------------------12--------|
A|-----------------------------------------------------------------|
E|-----------------------------------------------------------------|


1:50-2:02

e|--------9--9----------10-10-10h12-10h12p10-------------------------- |
B|-----10-10-10-9-10-12-12-12----------------14-12-12h14-12-10-------- |
G|-------------------------------------------------------------13-11-9 |
D|-------------------------------------------------------------------- |
A|-------------------------------------------------------------------- |
E|-------------------------------------------------------------------- |
                                                                       |  x2
e|--------9--9----------10-10-10h12-10h12p10-------------------------- |
B|-----10-10-10-9-10-12-12-12----------------14-12-10h12p10-10---10--- |
G|-------------------------------------------------------------9------ |
D|-------------------------------------------------------------------- |
A|-------------------------------------------------------------------- |
E|-------------------------------------------------------------------- |


2:02-2:05

e|-----12-12-12-12--12-12-12-12--12-12-12-12--12-12-12-12-------------|
B|--------------------------------------------------------------------|
G|--------------------------------------------------------------------|
D|--------------------------------------------------------------------|
A|--------------------------------------------------------------------|
E|--------------------------------------------------------------------|


2:05-2:11

e|-----12h14p12-10-12-10-------10---10-14-12--12h14p12-10-12-10-------10---------- |
B|-----------------------14-12----14----------------------------14-12----14-12-10- |
G|-------------------------------------------------------------------------------- |
D|-------------------------------------------------------------------------------- |  x2
A|-------------------------------------------------------------------------------- |
E|-------------------------------------------------------------------------------- |


2:11-2:17

e|---12-12-12---10-10---8-8-8----7----------------------------------------10----|
B|-----------13------12-------10----12h13p12-12-10-9--------------9-10-12-------|
G|---------------------------------------------------10-9----9-10---------------|
D|--------------------------------------------------------12--------------------|
A|------------------------------------------------------------------------------|
E|------------------------------------------------------------------------------|

e|---12-12-12---10-10---8-8-8----7----------------------------------------------|
B|-----------13------12-------10----12h13p12-12-10-9----------------------------|
G|---------------------------------------------------10-9----9-9-9~-------------|
D|--------------------------------------------------------12--------------------|
A|------------------------------------------------------------------------------|
E|------------------------------------------------------------------------------|


2:17-2:30

e|------------------------------------------------------------------------------------- |
B|-------------------------------------9h10p9-9---------9h10p9-9---------10-9-10-12-10- |
G|---------------9h10p9-9----9h10-9h10----------10-9-10----------10-9------------------ |
D|---11h12-11h12----------12------------------------------------------12--------------- |
A|------------------------------------------------------------------------------------- |
E|------------------------------------------------------------------------------------- |
                                                                                        
 x2
e|------------------------------------------------------------------------------------- |
B|-------------------------------------9h10p9-9---------9h10p9-9----------------------- |
G|---------------9h10p9-9----9h10-9h10----------10-9-10----------10-9-----9-9-9-------- |
D|---11h12-11h12----------12------------------------------------------12--------------- |
A|------------------------------------------------------------------------------------- |
E|------------------------------------------------------------------------------------- |
Добавлено: 11.06.2012
Другие материалы по этой песне:
  • Аккорды и текст

Страница создана 11.06.2012
http://primanota.ru/kultur-shock/seamstress-and-the-officers-chords.htm
Привет, Гость.
Предлагаем пройти революционный курс по гитаре.
Подарок от PrimaNota.Ru, забирай!