PrimaNota.ru - самый крупный в мире бесплатный архив песенных текстов, аккордов, табулатур и нот


Kult - Niejeden - аккорды и текст, видео

Регистрация Запомнить меня
Войти через:  Facebook Google Twitter Vk Yandex Mail.ru

Kult - Niejeden - аккорды и текст, видео

Печатать
Просмотров: 87
Niejeden
Kult
Kult - Niejeden
Tabbed by: damienos

Tuning: Standard


[intro solo]
   B5       D5    E5    B5
e|--------------------------|
B|--------------------------|
G|----------------9--7------|
D|-9----9-8-7-----------9---|
A|-------------9------------|
E|--------------------------|
   B5       D5   A5    B5
e|--------------------------|
B|--------------------------|
G|--------6-7---------------|
D|-9----9--------7----------|
A|------------------7--9----|
E|--------------------------|
   B5                           D5         E5  
e|------------------------------------------------------|
B|------------------------------------------------------|
G|-7---7-9-7--10-9-10-9-10-9-7--7---7-9-7--10-9-10-9-7--|
D|---9----------------------------9---------------------|
A|------------------------------------------------------|
E|------------------------------------------------------|
   B5         D5                  E5               B5
e|------------------------------------------------------|
B|------------------------------------------------------|
G|-7---7-9-7--10-9-10-9-10-9-10-9-10-9-10-9-10-9-7------|
D|---9---------------------------------------------9----|
A|------------------------------------------------------|
E|------------------------------------------------------|
   B5       D5   A5           B5
e|--------------------------------|
B|------------------------10--12--|
G|--------6-7----9--10-11---------|
D|-9----9-------------------------|
A|--------------------------------|
E|--------------------------------|

[intro]
B5 E5 F#5 E5
B5 E5 F#5 E5
B5 E5 F#5 E5
B5 E5 F#5 E5

[verse 1]
   B5          E5
Niejeden z nas idzie do siebie
   F#5         E5
Niejeden z nas chce być w niebie
   B5              E5
Niejeden z nas się organizuje
   F#5             E5
Niejeden zatruwany lub sam truje
   B5          E5
Niejeden z nas nie chce być nikim
   F#5         E5   E5    G5
Niejeden z nas jest grzesznikiem
E5 E5 E5 G5 G5 
E5 E5 G5 A5

[verse 2]
   B5           E5
Niejeden z nas zmienia poglądy
   F#5   E5
Niejeden słucha cudzych sądów
   B5              E5
Niejeden zbiera systematycznie w głowie
F#5             E5
To, co kto inny jemu powie
   B5          E5
Niejeden z nas w sumie chce być nikim
   F#5         E5   E5    G5
Niejeden z nas jest grzesznikiem
E5 E5 E5 G5 G5 
E5 E5 G5 A5

[verse 3]
   B5          E5
Niejeden z nas traci czas
      F#5                    E5
Na chodzenie po kościołach i kłamstwa o aniołach
   B5               E5
Niejeden z nas jest pracownikiem, który
F#5                 E5
Depcze butami twarz nowej kultury
   B5                 E5
Niejeden z nas chodzi często do kina
F#5            E5  E5  G5
Chodzi do kina średnio co godzina
E5 E5 E5 G5 G5 
E5 E5 G5 A5

[bridge]
B5 E5 F#5
E5 E5 G5
E5 E5 E5 G5 G5 
E5 E5 G5 A5
B5 E5 F#5
E5 E5 G5
E5 E5 E5 G5 G5 
E5 E5 G5 A5
B5 E5 F#5
E5 E5 G5
E5 E5 E5 G5 G5 
E5 E5 G5 A5
B5 E5 F#5
E5 E5 G5
E5 E5 E5 G5 G5 
E5 E5 G5 A5

[bridge 2]
E5 E5 G5
E5 E5 E5 G5 G5 
E5 E5 G5
E5 E5 E5 G5 G5 
E5 E5 G5
E5 E5 E5 G5 G5 
E5 E5 G5
E5 E5 E5 G5 G5 

[bridge 3]
E5 E5 G5
E5 E5 E5 G5 G5 
E5 E5 G5 A5
E5 E5 G5
E5 E5 E5 G5 G5 
E5 E5 G5 A5
E5 E5 G5
E5 E5 E5 G5 G5 
E5 E5 G5 A5
E5 E5 G5
E5 E5 E5 G5 G5 
E5 E5 G5 A5

[verse 4]
   B5           E5
Niejeden z nas wierzy w swoje racje
   F#5         E5
Niejeden z nas lubi wakacje
   B5               E5
Niejeden z nas jest pracownikiem instytucji
F#5           E5
Zatykającej kanały artykulacji
   B5               E5
Niejeden z nas obserwuje od rana
     F#5           E5 E5    G5
Chowających się po bramach
E5 E5 E5 G5 G5 
E5 E5 G5 A5

[verse 5]
   B5           E5
Niejeden z nas idzie do siebie
   F#5         E5
Niejeden z nas chce być w niebie
   B5                      E5
Niejeden niszczy alkoholem swoje oczodoły
F#5                E5
Które tworzył tyle lat z mozołem
   B5          E5
Niejeden z nas nie chce być grzesznikiem
  F#5              E5 E5   G5
A każdy jest grzesznikiem
E5 E5 E5 G5 G5 
E5 E5 G5 A5

[outro]
B5 E5 F#5
E5 E5 G5
E5 E5 E5 G5 G5 
E5 E5 G5 A5
E5


enjoy!
Добавлено: 13.02.2016
Другие материалы по этой песне:
  • Аккорды и текст

Страница создана 13.02.2016
http://primanota.ru/kult/niejeden-chords.htm
Привет, Гость.
Предлагаем пройти революционный курс по гитаре.
Подарок от PrimaNota.Ru, забирай!