PrimaNota.ru - самый крупный в мире бесплатный архив песенных текстов, аккордов, табулатур и нот


Kult - Królowa Życia - аккорды и текст, видео

Регистрация Запомнить меня
Войти через:  Facebook Google Twitter Vk Yandex Mail.ru

Kult - Królowa Życia - аккорды и текст, видео

Печатать
Просмотров: 83
Królowa Życia
Kult
Kult - Królowa życia
Tabbed by: damienos

Tuning: Standard

[intro]
G Am
G Am
G Am
G Am

[verse 1]
G  Am                                   G
Niebieskie dżinsy i słomiane kapelusze
  Am                                      G
Wodospad słońca, chmur poduchy, złoto pól
  Dm                                           Dm
Codziennie plecak pełen całkiem nowych wzruszeń
   E            Am
Królowa życia i król
G   Am                                        G
 Na taflach jezior trzepotanie białych żagli
      Am                                      G
Śnieg zimą w górach, latem lepsza morska sól
    Dm                                              Dm
Czy dzień, czy noc nic oprócz pragnień ich nie nagli
   E            Am
Królowa życia i król

[pre chorus]
    G
Dla zdrowia czasem spleen
  G
Patykiem pisanych win
   C               E
Odtrącaj szyjkę i "skool"

[chorus]
   E
Królowa życia
   E
Królowa życia
   E            Am
Królowa życia i król

[intro]
G Am
G Am

[verse 2]
G  Am                                              G
Zwycięstwa pierwsze i przegranych pierwsza gorycz
  Am                                     G
Motanie spraw jak rajdy bilardowych kul
   Dm                                  Dm
Co raz mądrzejsze życia podłapują wzory
   E            Am
Królowa życia i król
G    Am                                           G
Tych najtrudniejszych w życiu rozmów ostre słowa
   Am                                       G
"Jakoś to załatw" "dla higieny weźmy ślub"
     Dm                                  Dm
Choć trochę głupio było, trudno dopasować
   E            Am   
Królowa życia i trup
Am

[pre chorus]
   G
Na szczęście brak pamięci
G
Jakoś tam trzeba kręcić
   C                  E
Po prostu we mnie się wtul

[chorus]
   E
Królowa życia
   E
Królowa życia
   E            Am
Królowa życia i król

[verse 3]
G Am                                   G
Pofartowało się zupełnie niesłychanie
  Am                              G
Gablota mota na opony wstęgę szos
  Dm                                        Dm
I skórą kurtek świecą w środku jak Marsjanie
   E            Am   
Królowa życia i boss
G   Am                                        G
Jak człowiek wygra to dopiero ma coś z życia
  Am                                      G
Naprawdę czuje jak wariuje w żyłach krew
 Dm                                      Dm
Układy takie, że no wprost nie do odbicia
   E            Am   
Królowa życia i szef

[bridge]
Am
Am
Am
Am

[pre chorus]
   G
To już na pewno góra
  G
I farty i kultura
C                   E
Nigdy nie wypadną z ról

[chorus]
   E
Królowa życia
   E
Królowa życia
   E            Am
Królowa życia i król

[solo]
G Am               G        Am
e|-------------------------------7-10-8-7b8r7--|
B|----10--12s13-------------8-10---------------|
G|--9-----------12-10-8b9----------------------|
D|---------------------------------------------|
A|---------------------------------------------|
E|---------------------------------------------|
G Dm                                    Dm     E             Am
e|-----10-12-12s13-12-10--------------------------------------------------|
B|--10-------------------13-12b13r12-----12b13---12b13r12----10-10b11r10--|
G|------------------------------------10------------------12--------------|
D|------------------------------------------------------------------------|
A|------------------------------------------------------------------------|
E|------------------------------------------------------------------------|
G Am                                  G  Am
e|---19-15-15-15-19-15-15-15-15h17-17-----------12-13b15-13-12----------------|
B|--------------------------------------------13---------------15-13-12-------|
G|------------------------------------------14--------------------------12-14-|
D|----------------------------------------------------------------------------|
A|----------------------------------------------------------------------------|
E|----------------------------------------------------------------------------|
G Dm                     Dm              E            Am
e|----------------------------------------------20-19-17-15-15h17-17--|
B|------------------10-12-12b13r12-10-10s12-12------------------------|
G|---12--12-9-10-12---------------------------------------------------|
D|--------------------------------------------------------------------|
A|--------------------------------------------------------------------|
E|--------------------------------------------------------------------|

[verse 4]
G Am                                             G
A potem taki czas, że wszystko jest już śliczne
  Am                                                    G
I co raz mniej co dzień zwyczajnych spraw, cest brulle
     Dm                                   Dm
Więc admiruje cię, bo to takie romantyczne
   E            Am
Królowa życia i król
G  Am                                      G
Co raz mniej jawy, co raz więcej alkoholi
    Am                                    G
Oh, Barleycorn, powieki oczom duszy stul
 Dm                                Dm
Oboje wiemy jak samotność nocą boli
   E            Am
Królowa życia i król

[pre chorus]
  G
Wódeczka raz, bo świta
    G
Pod czaszką kac zgrzyta
C                    E
Wszystko załatwi ten ból

[chorus]
   E
Królowa życia
   E
Królowa życia
   E            Am
Królowa życia i król

[chorus]
   E
Królowa życia
   E
Królowa życia
   E            Am
Królowa życia i król

[outro]
   E
Królowa życia
   E
Królowa życia
   E            Am
Królowa życia i król


enjoy!
Добавлено: 13.02.2016
Другие материалы по этой песне:
  • Аккорды и текст

Страница создана 13.02.2016
http://primanota.ru/kult/krolowa-zycia-chords.htm
Привет, Гость.
Предлагаем пройти революционный курс по гитаре.
Подарок от PrimaNota.Ru, забирай!