PrimaNota.ru - самый крупный в мире бесплатный архив песенных текстов, аккордов, табулатур и нот


Kult Ov Azazel - An Eternity With Satan - таба, видео

Регистрация Запомнить меня
Войти через:  Facebook Google Twitter Vk Yandex Mail.ru

Kult Ov Azazel - An Eternity With Satan - таба, видео

Печатать
Просмотров: 94
Уроки эстрадного вокала в Санкт-Петербурге
    Gtrs I, II
                                                                    4x
||-----------------|----------------|----------------|--------------||
||o----------------|----------------|----------------|-------------o||
||-----------------|----------------|----------------|--------------||
||--------------6--|-------------6--|-------------6--|--------------||
||o-5--5--5-3-5-4--|-5--5--5-3-5-4--|-5--5--5-3-5-4--|-5--5--6---3-o||
||--3--3--3-1-3----|-3--3--3-1-3----|-3--3--3-1-3----|-3--3--4---1--||


    TP  TP  TP  TP   TP  TP  TP
                                         4x
||-----------------|---------------------||
||o----------------|--------------------o||
||-----------------|---------------------||
||-----------------|---------------------||
||o----12--11--10--|----12--11--10S9S10-o||
||--0--------------|-0-----------8S7S=8--||


||----------------------|---------------------|
||o---------------------|---------------------|
||----------------------|---------------------|
||--------3-3-------4-4-|-------3-3-5-7-8-8-8-|
||o-------5-5-------6-6-|-------5-5-3-5-6-6-6-|
||--0-0-0-----0-0-0-----|-0-0-0---------------|


                                             4x
|---------------------|----------------------||
|---------------------|---------------------o||
|---------------------|----------------------||
|-------3-3-------4-4-|-------3-3-3-5-6-5-5--||
|-------5-5-------6-6-|-------5-5-1-3-4-3-3-o||
|-0-0-0-----0-0-0-----|-0-0-0----------------||


||--------------------------|--------------------------|
||o-------------------------|--------------------------|
||--------------------------|--------------------------|
||--2-2-2-2-2-2-5-5-5-------|-2-2-2-2-2-2-5-5-5--------|
||o-0-0-0-0-0-0-3-3-3-5-5-5-|-0-0-0-0-0-0-3-3-3-5-5-5--|
||--------------------3-3-3-|-------------------3-3-3--|


|-------------------------|--------------------------||
|-------------------------|-------------------------o||
|-------------------------|--------------------------||
|-3-3-3-3-3-3-6-6-6-2-2-2-|-3-3-3-3-3-3-6-6-6-2-2-2--||
|-1-1-1-1-1-1-4-4-4-0-0-0-|-1-1-1-1-1-1-4-4-4-0-0-0-o||
|-------------------------|--------------------------||


                                                     4x
||--------------------------|------------------------||
||o-------------------------|-----------------------o||
||--------------------------|------------------------||
||--------------------------|------------------------||
||o-2-2-2-3-2-2-2-2-2-3-2-2-|-2-2-2-3-2-2-2-2-2-5-3-o||
||--0-0-0-1-0-0-0-0-0-1-0-0-|-0-0-0-1-0-0-0-0-0-3-1--||


    TP  TP  TP  TP   TP  TP  TP
                                         4x
||-----------------|---------------------||
||o----------------|--------------------o||
||-----------------|---------------------||
||-----------------|---------------------||
||o----12--11--10--|----12--11--10S9S10-o||
||--0--------------|-0-----------8S7S=8--||


||--------------------------|--------------------------|
||o-------------------------|--------------------------|
||--------------------------|--------------------------|
||--5-5-5-5-5-5-5-5-5-5-5-5-|-7-7-7-7-7-7-7-7-7-7-7-7--|
||o-3-3-3-3-3-3-3-3-3-3-3-3-|-5-5-5-5-5-5-5-5-5-5-5-5--|
||--------------------------|--------------------------|


                                                     4x
|-------------------------|--------------------------||
|-------------------------|-------------------------o||
|-------------------------|--------------------------||
|-8-8-8-8-8-8-8-8-8-8-8-8-|-7-7-7-7-7-7-3-3-3-3-3-3--||
|-6-6-6-6-6-6-6-6-6-6-6-6-|-5-5-5-5-5-5-1-1-1-1-1-1-o||
|-------------------------|--------------------------||


                                                     4x
||--------------------------|------------------------||
||o-------------------------|-----------------------o||
||--------------------------|------------------------||
||--------------------------|------------------------||
||o-2-2-2-3-2-2-2-2-2-3-2-2-|-2-2-2-3-2-2-2-2-2-5-3-o||
||--0-0-0-1-0-0-0-0-0-1-0-0-|-0-0-0-1-0-0-0-0-0-3-1--||


||--------------------------|--------------------------|
||o-------------------------|--------------------------|
||--------------------------|--------------------------|
||--5-5-5-5-5-5-5-5-5-5-5-5-|-7-7-7-7-7-7-7-7-7-7-7-7--|
||o-3-3-3-3-3-3-3-3-3-3-3-3-|-5-5-5-5-5-5-5-5-5-5-5-5--|
||--------------------------|--------------------------|


                                                     4x
|-------------------------|--------------------------||
|-------------------------|-------------------------o||
|-------------------------|--------------------------||
|-8-8-8-8-8-8-8-8-8-8-8-8-|-7-7-7-7-7-7-3-3-3-3-3-3--||
|-6-6-6-6-6-6-6-6-6-6-6-6-|-5-5-5-5-5-5-1-1-1-1-1-1-o||
|-------------------------|--------------------------||


                                                     4x
||--------------------------|------------------------||
||o-------------------------|-----------------------o||
||--------------------------|------------------------||
||--------------------------|------------------------||
||o-2-2-2-3-2-2-2-2-2-3-2-2-|-2-2-2-3-2-2-2-2-2-5-3-o||
||--0-0-0-1-0-0-0-0-0-1-0-0-|-0-0-0-1-0-0-0-0-0-3-1--||


    TP  TP  TP  TP   TP  TP  TP
||-----------------|---------------------||
||o----------------|--------------------o||
||-----------------|---------------------||
||-----------------|---------------------||
||o----12--11--10--|----12--11--10S9S10-o||
||--0--------------|-0-----------8S7S=8--||
Добавлено: 18.03.2012
Другие материалы по этой песне:

Страница создана 18.03.2012
http://primanota.ru/kult-ov-azazel/an-eternity-with-satan-chords.htm
Привет, Гость.
Предлагаем пройти революционный курс по гитаре.
Подарок от PrimaNota.Ru, забирай!