PrimaNota.ru - самый крупный в мире бесплатный архив песенных текстов, аккордов, табулатур и нот


Kula Shaker - Temple Of Everlasting Light - текст песни, таба, видео

Регистрация Запомнить меня
Войти через:  Facebook Google Twitter Vk Yandex Mail.ru

Kula Shaker - Temple Of Everlasting Light - текст песни, таба, видео

Печатать
Просмотров: 87
Уроки эстрадного вокала в Санкт-Петербурге
Kula Shaker - Temple Of Everlasting Light

Intro

e[|----0----------|---------------|]
B[|---3-----------|---------------|] ====
G[|2h3------------|---------------|]  x2
D[|---------------|---------------|] ====
A[|---------------|---------------|]
E[|---------------|---------------|]


Then two guitars come in:

Guitar 1: (riff 1)

e[|------0---------------0---------|]
B[|----3-----3---------3-----3-----|] ====
G[|2h3---------3---2h3---------3---|]  x4
D[|--------------------------------|] ====
A[|--------------------------------|]
E[|--------------------------------|]
   ^       ^       ^       ^

Guitar 2: (riff 2)

e[|--------------------------------|--------------------------------|]
B[|--------------------------------|--------------------------------|] ====
G[|------0-------0-------0-------0-|------0-------0---------------0-|]  x2
D[|----0-------0-------0-------0---|----0-------0---------------0---|] ====
A[|--------1h3-------------1h3-----|--------1h3-----1p0-------------|]
E[|1h3-------------1h3-------------|1h3-----------------1---3-------|]
   ^       ^       ^       ^        ^       ^       ^       ^

Verse 1

Guitar 2:

 'Will I ever...'
e[|--------------------------------|--------------------------------|]
B[|--------------------------------|------------------------------3-|] ====
G[|------0-------0-------0-------0-|------0-------0-------------0---|]  x3
D[|----0-------0-------0-------0---|----0-------0-------------------|] ====
A[|--------1h3-------------1h3-----|--------1h3-----1p0-------------|]
E[|1h3-------------1h3-------------|1h3-----------------1---3-------|]
   ^       ^       ^       ^        ^       ^       ^       ^

e|--------------------------------|--------------------------------|
B|--------------------------------|--------------------------------|
G|------0-------0-------0-------0-|------0-------0-----------0-----|
D|----0-------0-------0-------0---|----0-------0-------------0-----|
A|--------1h3-------------1h3-----|--------1h3-----1p0-------------|
E|1h3-------------1h3-------------|1h3-----------------1---1-----1-|
  ^       ^       ^       ^        ^       ^       ^       ^

Break

[Guitar 1 comes back in, playing riff 1]

Guitar 2:

e|--------------------------------|--------------------------------|
B|--------------------------------|--------------------------------|
G|------0-------0-------0-------0-|------0-------0-----------------|
D|----0-------0-------0-------0---|----0-------0-------------------|
A|--------1h3-------------1h3-----|--------1h3-----1p0---------3---|
E|1h3-------------1h3-------------|1h3-----------------1---3-------|
  ^       ^       ^       ^        ^       ^       ^       ^

e|2-------------------------------|3-------------------------------|
B|3-------------------------------|1-------------------------------|
G|2-------------------------------|2-------------------------------|
D|0-------------------------------|0-------------------------------|
A|--------------------------------|--------------------------------|
E|--------------------------------|--------------------------------|
  ^       ^       ^       ^        ^       ^       ^       ^

Verse 2

Guitar 2 (bit different this time):

 'If I wait...'
e[|--------------------------------|--------------------------------|]
B[|------3-------3-------3-------3-|------3-------3---------------3-|] ====
G[|--------------------------------|------------------------------0-|]  x4
D[|----0-------0-------0-------0---|----0-------0---------------0---|] ====
A[|--------1h3-------------1h3-----|--------1h3-----1p0-------------|]
E[|1h3-------------1h3-------------|1h3-----------------1---3-------|]
   ^       ^       ^       ^        ^       ^       ^       ^


Refrain ('Well I have waited...)

e[|2-2-2-2-2-2-2-2-|3-3-3-3-3-3-3-3-|3-3-3-3-3-3-3-3-|----------------|]
B[|3-3-3-3-3-3-3-3-|1-1-1-1-1-1-1-1-|0-0-0-0-0-0-0-0-|2-2-2-2-2-2-2-2-|] ====
G[|2-2-2-2-2-2-2-2-|2-2-2-2-2-2-2-2-|0-0-0-0-0-0-0-0-|2-2-2-2-2-2-2-2-|]  x3
D[|0-0-0-0-0-0-0-0-|0-0-0-0-0-0-0-0-|0-0-0-0-0-0-0-0-|2-2-2-2-2-2-2-2-|] ====
A[|----------------|----------------|----------------|0-0-0-0-0-0-0-0-|]
E[|----------------|----------------|3-3-3-3-3-3-3-3-|----------------|]
   ^   ^   ^   ^    ^   ^   ^   ^    ^   ^   ^   ^    ^   ^   ^   ^

e|----------------|----------------|
B|5-5-5-5-5-5-5-5-|5-5-5-5-4-4-4-4-|
G|5-5-5-5-5-5-5-5-|5-5-5-5-4-4-4-4-|
D|5-5-5-5-5-5-5-5-|5-5-5-5-4-4-4-4-|
A|3-3-3-3-3-3-3-3-|3-3-3-3-2-2-2-2-|
E|----------------|----------------|
  ^   ^   ^   ^    ^   ^   ^   ^

Solo

Guitar 2:

e[|--------------------------------|--------------------------------|]
B[|--------------------------------|------------------------------3-|] ====
G[|------0-------0-------0-------0-|------0-------0-------------0---|]  x5
D[|----0-------0-------0-------0---|----0-------0-------------------|] ====
A[|--------1h3-------------1h3-----|--------1h3-----1p0-------------|]
E[|1h3-------------1h3-------------|1h3-----------------1---3-------|]
   ^       ^       ^       ^        ^       ^       ^       ^

e[|--------------------------------|]
B[|3---3-3-3---3-3-3---3-3-3---3-3-|] =====
G[|0---0-0-0---0-0-0---0-0-0---0-0-|]  x10
D[|0---0-0-0---0-0-0---0-0-0---0-0-|] =====
A[|--------------------------------|]
E[|3---3-3-3---3-3-3---3-3-3---3-3-|]
   ^       ^       ^       ^

Guitar 3

e|--------------------------------|-----------------------12p10----|
B|--------------------------------|----------------------------13--|
G|--------------------------------|--------------------------------|
D|--------------------------------|--------------------------------|
A|--------------------------------|--------------------------------|
E|3-------------------------------|b5------------------------------|
  ^       ^       ^       ^        ^       ^       ^       ^

e|--------------------------------|--------------------------------|
B|13-b15--------------------------|--------------------------------|
G|--------------------------------|--------------------------------|
D|--------------------------------|--------------------------------|
A|--------------------------------|--------------------------------|
E|--------------------------------|--------------------------------|
  ^       ^       ^       ^        ^       ^       ^       ^

e[|--------------------------------|--------------------------------|]
B[|6-----5-----6---8-----6-----8---|8/10-----------10h11-11---------|] ====
G[|--------------------------------|--------------------------------|]  x2
D[|--------------------------------|--------------------------------|] ====
A[|--------------------------------|--------------------------------|]
E[|--------------------------------|--------------------------------|]
   ^       ^       ^       ^        ^       ^       ^       ^

e|----------------12h13-----------|13h15---------12h13-10h12p10----|
B|13-15---------------------------|--------------------------------|
G|--------------------------------|--------------------------------|
D|--------------------------------|--------------------------------|
A|--------------------------------|--------------------------------|
E|--------------------------------|--------------------------------|
  ^       ^       ^       ^        ^       ^       ^       ^

e|--------------------------------|--------10----------------------|
B|10h11p10-----------10h11p10-13--|--------------------10h11p10----|
G|--------10h12-12----------------|12------------------------------|
D|--------------------------------|--------------------------------|
A|--------------------------------|--------------------------------|
E|--------------------------------|--------------------------------|
  ^       ^       ^       ^        ^       ^       ^       ^

e|--------10----------------------|-------10-----------------------|
B|--------------------10h11p10----|-------10-----------------------|
G|12---------12-12----------------|12---------12-12-12-12----------|
D|--------------------------------|--------------------------------|
A|--------------------------------|--------------------------------|
E|--------------------------------|--------------------------------|
  ^       ^       ^       ^        ^       ^       ^       ^

e|----15------15------------------|----15------15------------------|
B|15h18--15h17---15------15h17----|15h18--15h17---15------17-------|
G|--------------------------------|--------------------------------|
D|--------------------------------|--------------------------------|
A|--------------------------------|--------------------------------|
E|--------------------------------|--------------------------------|
  ^       ^       ^       ^        ^       ^       ^       ^

e|-----18----18-18---18-18---18-18|-----18-------15----------------|
B|15-----15-------15------15------|15h17--17--17---18------18--18--|
G|--------------------------------|--------------------------------|
D|--------------------------------|--------------------------------|
A|--------------------------------|--------------------------------|
E|--------------------------------|--------------------------------|
  ^       ^       ^       ^        ^       ^       ^       ^

e|---18-18---------18-------------|-----18-------------------------|
B|15------15--17-----17---17--17--|-----------------------13-------|
G|--------------------------------|14h15---15---14/15-15-----------|
D|--------------------------------|------------------------0-------|
A|--------------------------------|------------------------0-------|
E|--------------------------------|--------------------------------|
  ^       ^       ^       ^        ^       ^       ^       ^
Добавлено: 30.03.2016
Другие материалы по этой песне:

Страница создана 27.04.2012
http://primanota.ru/kula-shaker/temple-of-everlasting-light-chords.htm
Привет, Гость.
Предлагаем пройти революционный курс по гитаре.
Подарок от PrimaNota.Ru, забирай!