PrimaNota.ru - самый крупный в мире бесплатный архив песенных текстов, аккордов, табулатур и нот


Kula Shaker - Red Baloon - аккорды и текст, видео

Регистрация Запомнить меня
Войти через:  Facebook Google Twitter Vk Yandex Mail.ru

Kula Shaker - Red Baloon - аккорды и текст, видео

Печатать
Просмотров: 162
Red Baloon
Kula Shaker
Date: Sun, 26 Mar 2000 14:12:07 -0500
From: Andre Tentugal Cardoso 
Subject: k/kula_shaker/red_baloon.crd

 Kula Shaker - Red Baloon


e --3--5--3-3-5------------------------------------------------------
B --------------3---5--3--5^6^5--5-3-----3---------------------------
G ------------------------------------5------------------------------
D ------------------------------------------0--0-3--0-----0--0-3--0--
A -------------------------------------------------------------------
E -------------------------------------------------------------------

(verse 1)

D G
Bought ...
Cadd9 D
And A ...
D G
'Cos ...
Cadd9 D
Was ...

(chorus)

C G D
She ...
C D
Ooooh ...
C G D

C D C G D


(riff)

(verse 2)

(chorus)

C G D
blue surprise

(guitar)

(chorus)

C G D C G D
blue surprise, blue surprise.

(guitar)

C G D
blue surprise [fade out with this]

 ----------------------------------------------------
 Transcribed by Andr=E9 Tentugal - Plumpman@hotmail.com
 ----------------------------------------------------
Добавлено: 15.04.2012
Другие материалы по этой песне:
  • Аккорды и текст

Страница создана 15.04.2012
http://primanota.ru/kula-shaker/red-baloon-chords.htm
Привет, Гость.
Предлагаем пройти революционный курс по гитаре.
Подарок от PrimaNota.Ru, забирай!