PrimaNota.ru - самый крупный в мире бесплатный архив песенных текстов, аккордов, табулатур и нот


Kula Shaker - Mystical Machine Gun - текст песни, таба, видео

Регистрация Запомнить меня
Войти через:  Facebook Google Twitter Vk Yandex Mail.ru

Kula Shaker - Mystical Machine Gun - текст песни, таба, видео

Печатать
Просмотров: 189
Авторы музыки: Alonza Bevan, Paul Winter-Hart, Jay Darlington, Crispian Mills
Авторы текста: Crispian Mills
Right - just having a look through the Shaker tabs on here and the version of this
on here aint the best so here you go peeps.  Any suggestions/comments to j_millington@hotmail.com.

Mystical Machine Gun - Kula Shaker
Peasants, Pigs and Astonauts
Tabbed by: JMILLI2
Normal Tuning

Note:  when I put say 2**3 (this means bend it up and 4 times)

Intro:


e:------7--------------|
b:---7--7--x-x---------|
g:---9--7--x-x-9----7--|         x 3
d:---9--7--x-x-9----7--|
a:---7--7--x-x-7----7--|
e:-0-------------------|

e:------7------------------------7-----------------------------------|
b:---7--7--x-x----------------7--7--x-x------------------7-----------|
g:---9--7--x-x-9----6---------9--7--x-x-9--7-------------9--7-x-x-9--|
d:---9--7--x-x-9----7---------9--7--x-x-9--7h9p7h9p7-----9--7-x-x-9--|
a:---7--7--x-x-7----7---------7--7--x-x-7----------------7----x-x-7--|
e:-0----------------5-------0--------------------------0-------------|

e:-------------------------------7---------|
b:---7--7---------------------7--7--x-x----|
g:---9--9------7------9-------9--7--x-x-9--|
d:---9--9--7h9---9/11---------9--7--x-x-9--|
a:----------------------------7--7--x-x-7--|
e:-0------------------------0--------------|

etc.... carries on in and around this for a bit until  (can't be bothered typing it out)   - then:

e:--5--3-----4---------------------0-----0-----0--|
b:--6----5-----5-----2---------0h3---0h2----------|
g:--7------5-----4---2---------------------0h2----|
d:-------------------2----------------------------|
a:------------------------------------------------|
e:------------------------------------------------|

Verse:

Em
d:-------------------------------------------7/5-x--|
a:--7-x-7--x-x-7-x-7---x-x-7-x-7-x-x-7-x-7-x--------|
e:--------------------------------------------------|

Em
g:----------------------------------------------9-----------------|
d:----------------------------------------5-----------------------|
a:--7-x-x-7-x-7-x-x-7---x-7-x-x-7-x-x-5/7---7-x---x-x-7-x-7-x-x-7-|
e:----------------------------------------------------------------|

Chorus:
e:---0--------------------------------------|
b:---8----------------------2b----2-2-0-----|
g:---9----------------------------2-2-0-----|
d:---9-7h9p7----7-------------------2-0-----|
a:---7-------10---10p7-0-0------0-----------|
e:-0----------------------------------------|

e:---0----------------------0----------0-0-0---|
b:---8----------------------3-5-----7----8-10--|
g:---9--------------------------4/6------------|
d:---9-7h9p7----7---------------4/7------------|
a:---7-------10---10p7-0-0---------------------|
e:-0-------------------------------------------|

e:---0------------------------------------|
b:---8----------------------2b----2-2-0---|
g:---9----------------------------2-2-0---|
d:---9-7h9p7----7-------------------2-0---|
a:---7-------10---10p7-0-0------0---------|
e:-0--------------------------------------|

e:---0----------------------------0-----0--|
b:---8------------------------0h3---0h2----|
g:---9----------------------2--------------|
d:---9-7h9p7----7--------------------------|
a:---7-------10---10p7-0-0-----------------|
e:-0---------------------------------------|

Repeat another verse and this chorus but instead of the last part of the chorus play:

e:------------------------17-17-17-17-17-17-17-17-17-17--------|
b:---8--------------------17-17-17-17-17-17-17-17-17-17--------|
g:---7-----7---------------------------------------------------|
d:---5-7h9------7----------------------------------------------|
a:---7-------10---10-7-0---------------------------------------|
e:-0------------------------------------------------------15/0-|

the Bridge:  (the Well you've got to be stronger now.... bit)

   Well you've........
e:--------------5-5-5-0--0-0-0-0-5-5-5-------|
b:--------------5-5-5-0--0-0-0-0-6-6-6-------|
g:--5---5-5-----6-6-6----4-4-4-4-7-7-7-------|
d:--5---5-5-----7-7-7----2-2-2-2-7-7-7-------|
a:--3---3-3-----7-7-7------------5-----------|
e:-------------------------------------10/0--|

e:----------------------5--5-5---------------|
b:----------------------5--5-5---------------|
g:--5---5-5-5-5--6--6---6--6-6--2**3---2**3--|
d:--5---5-5-5-5--7--7---7--7-7---------------|
a:--3---3-3-3-3--7--7------------------------|
e:---------------5--5------------------------|

   You'll be..........
e:-----------------5--5-5--------------------5----------------5-5-5-5---|
b:-----------------5--5-5-------9--9-9-------6----------------5-5-5-5---|
g:-----5--5-5------6--6-6-------9--9-9-7--7--7----------------6-6-6-6---|
d:-----5--5-5------7--7-7-------9--9-9-7--7--7------5-5--5-5--7-7-7-7---|
a:--3--3--3-3-7-----------------7--7-7-5--5------5--3-3--3-3--7-7-7-7---|
e:------------5-----------0--0--------------------------------5-5-5-5---|

          e:-------------------------------------------------|
guitar 2  b:--9**10---9**2--9**2------------9**10------------|
          g:-------------------------------------------------|
guitar 1  d:--2**3----2**3--2-3-2-3-2-3-2-3-2-3-2-3-2-3-2-3--|
          a:-------------------------------------------------|
          e:-------------------------------------------------|

Solo:

e:--12----------------------------------------0----------------|
b:--12-12---12--12--8---------0---0--0---0--0---3-2-2p0----0---|
g:-----12---11--9---6---------7---9--11--9--------------2------|
d:-------------------------------------------------------------|

e:--------0------------------------------------------------0---0-----0-3--|
b:-----------5b-(6)-(6)-(6p5)--5p3--2h3p2p0--------------0---3---3/5------|
g:------0-----------------------------------2p0-2-(2b)-2------------------|
d:------------------------------------------------------------------------|
a:------------------------------------------------------------------------|
e:-15/0-------------------------------------------------------------------|

e:-5-5/7---10-10-10p9-9h10-10/12-12-12-12--12-12-----12-12-----12----12----|
b:-----------------------------------------------15b-------15b----15b--15b-|
g:-------------------------------------------------------------------------|
d:-------------------------------------------------------------------------|

e:---------------------------------------------------------|
b:-----15-15-15-15-17-17-17-17-19-19-19-19-20-20-20-20-20--|
g:--0--16-16-16-16-18-18-18-18-19-19-19-19-21-21-21-21-21--|   x 2
d:--0------------------------------------------------------|
a:---------------------------------------------------------|

e:---------------------------------------0-0-0--15------|
b:--15-15-15-15-17-17-17-17-19-19-19-19--0-0-0------17--|
g:--16-16-16-16-18-18-18-18-19-19-19-19-----------------|
d:------------------------------------------------------|
a:------------------------------------------------------|

e:--15--|   x 14
b:--17--|
g:------|

g:---------------------------------------------------------------|
d:--------------------2------------------------2-----------------|
a:-------2--2-2-2--2--0--------2-------2-------0--------2--------|
e:-15/0--0--0-0-0--0-----15/0--0---3-3-0--3--3----15/0--0--15/0--|

e:----------------------------------5------------------------------------|
b:----------------------------------6-------------------------9-9-9------|
g:-------------------------------7--5-7-7-7--7--5-5--5-5-5-5--9-9-9------|
d:--2-2---2-2--------------------7--7-7-7-7--7--5-5--5-5-5-5--9-9-9-0-0--|
a:--0-0---0-0--------2---2---2---5----5-5-5--5--3-3--3-3-3-3--7-7-7-0-0--|
e:-------------15/0--0---0---0-------------------------------------------|

e:------------------0-----0------0---12/0--|
b:--2------3----0h3---0h2------------12/0--|
g:--2------0----------------0h2------12/0--|
d:--2--2h4-4-------------------------------|
a:--0--------------------------------------|
e:-----------------------------------------|


There are a few bits missing here and there but that's about it.
Добавлено: 18.07.2012
Другие материалы по этой песне:
  • Аккорды и текст

Страница создана 18.07.2012
http://primanota.ru/kula-shaker/mystical-machine-gun-chords.htm
Привет, Гость.
Предлагаем пройти революционный курс по гитаре.
Подарок от PrimaNota.Ru, забирай!