PrimaNota.ru - самый крупный в мире бесплатный архив песенных текстов, аккордов, табулатур и нот


Kula Shaker - 303 - текст песни, таба, видео

Регистрация Запомнить меня
Войти через:  Facebook Google Twitter Vk Yandex Mail.ru

Kula Shaker - 303 - текст песни, таба, видео

Печатать
Просмотров: 318
Kula Shaker - 303

Sweet song from the late 90s brit pop era

Standard tuning EADGBe - 2 guitars

Intro: With wah (Had to slow this right down to get the notes right.. i think they're correct)

Guitar 2
e|---------------------------------------------------------------------------|
B|---------------------------------------------------------------------------|
G|-12-14-12-14b16r-12-14p12--------------------------------------------------|
D|--------------------------14-14p12-----------------------------12~h14------|
A|-----------------------------------14p12\10-------12~-10-12/13-------------|
E|--------------------------------------------12~\\--------------------------|

Guitar 1 comes crashing in with these chords
   E     G  A    E - let ring
e|----0----------------------------------------------------------------------|
B|----0--0--2----0~~~~~~~----------------------------------------------------|
G|-1--1--0--2----1~~~~~~~----------------------------------------------------|
D|-2--2--0--2----2~~~~~~~----------------------------------------------------|
A|-2--2--x--0----2~~~~~~~----------------------------------------------------|
E|-0--0--3----3--0~~~~~~~----------------------------------------------------|

Guitar 2 (wah) plays with guitar 1 ^^
e|---------------------------------------------------------------------------|
B|--------------------12----12----15----15----15----15-----------------------|
G|--------------------14b16-14b16-17b19-17b19-17b19-17b19--------------------|
D|-14-14-x12-14-x14----------------------------------------------------------|
A|---------------------------------------------------------------------------|
E|---------------------------------------------------------------------------|

Guitar 1
e|----0----------0~~~~~~-----------------------------------------------------|
B|-0--0--0--2----0~~~~-------------------------------------------------------|
G|-1--1--0--2----1~~~~--2b4~~~~~~~~~~~~~~~~~~~~~~~~~~~~r---------------------|
D|-2--2--0--2----2~~~~-------------------------------------------------------|
A|-2--2--x--0----2~~~~-------------------------------------------------------|
E|-0--0--3----3--0~~~~-------------------------------------------------------|

Guitar 2
e|---------------------------------------------------------------------------|
B|---------------------------------------------------------------------------|
G|----------------------14b16-14p12------------------------------------------|
D|----------------------------------14-14p12---------------------------------|
A|-------------------------------------------14-14p12\10~~-------------------|
E|---------------------------------------------------------------------------|

Both guitars          "Im just im just im just a man.."
e|---------------------------------------------------------------------------|
B|-4-4-4-4-4-4-4-4-4---------------------------------------------------------|
G|-4-4-4-4-4-4-4-4-4---------------------------------------------------------|
D|-4-4-4-4-4-4-4-4-4---------------------------------------------------------|
A|-2-2-2-2-2-2-2-2-2---------------------------------------------------------|
E|---------------------------------------------------------------------------|

Verse 1

E        (G) A          E
man stuck pushing some wheel
                      E           A   E
Moving on and down the road to the 303,
Nc
In the land of summer
Em7         A     E
sun we have just begun,
         A          Em7          A        E
Riding out with my friends in a mercedes benz

There are various lil wah riffs during verse, cant tab them all, so i improvise on the 
fret something like during
"in the land of summer sun(start playing here) we have..."
e|---------------------------------------------------------------------------|
B|----12-xx-12-14-12b-x--14-12-xx-12-----------------------------------------|
G|----12-xx-12-14-12b-x--14-12-xx-12-14~~------------------------------------|
D|-14------------------------------------------------------------------------|
A|---------------------------------------------------------------------------|
E|---------------------------------------------------------------------------|

Pre-Chorus:

Nc
You can find your way
A           G  E
home on the 303

On "303" play:
e|---------------------------------------------------------------------------|
B|---------------------------------------------------------------------------|
G|-pb14b16-14b16-14b16p12----14p12-------------------------------------------|
D|------------------------14-------14-14-------------------------------------|
A|---------------------------------------------------------------------------|
E|---------------------------------------------------------------------------|

             A        G  E
let yourself go on the 303,
E    A         G  E
    ohhh on the 303

Chorus (bar chords - not for Em7 tho)
     C    D     G           Em7
Well Hard times, well all I know is that
C      D       G         Em7
Dark times, Gotta let it go because
  A      C
I got my friends and I
A      C
love my friends
A      C
got my friends
      D                         A
yeah right to the end round the bend all together now!

Interlude riff

e|---------------------------------------------------------------------------|
B|---------------------------------------------------------------------------|
G|-----1-1------1-1----------------------------------------------------------|
D|-----2-2------2-2--Play-5-times--------------------------------------------|
A|-----2-2------2-2----------------------------------------------------------|
E|-3p0-0-0--3p0-0-0----------------------------------------------------------|

Then B B B B B B B B B

Into verse 2 (same chords as verse 1) and chorus

then solo - repeat 4 times

e|---------------------------------------------------------------------------|
B|-15b16-15-----xx-----------------------------------------------------------|
G|----------12~-xx-14b16p12--------------------------------------------------|
D|--------------------------14-----------------------------------------------|
A|---------------------------------------------------------------------------|
E|---------------------------------------------------------------------------|

Then in harmony with ohohohoh (2:16)

e|--------------------------------------------------------15---15-15-15---15---|
B|--------------------------------------------------------15h17------15h17-----|
G|-12~~b13r12b13r12-(twice)--12----------12h14-14-14-14/16---------------------|
D|-----------------12~-------12h14-14-14---------------------------------------|
A|-----------------------------------------------------------------------------|
E|-----------------------------------------------------------------------------|

Then it goes back into chorus one last time and does some crazy wah-ing solo i just 
and then your done!

End on an open E chord

please rate it took a while 2 tab!

tabbed by Alister Newton, NZ
Добавлено: 28.02.2012
Другие материалы по этой песне:
  • Аккорды и текст

Страница создана 28.02.2012
http://primanota.ru/kula-shaker/303-chords.htm
Привет, Гость.
Предлагаем пройти революционный курс по гитаре.
Подарок от PrimaNota.Ru, забирай!