PrimaNota.ru - самый крупный в мире бесплатный архив песенных текстов, аккордов, табулатур и нот


Kudai - Lejos De La Ciudad - аккорды и текст, таба, видео

Регистрация Запомнить меня
Войти через:  Facebook Google Twitter Vk Yandex Mail.ru

Kudai - Lejos De La Ciudad - аккорды и текст, таба, видео

Печатать
Просмотров: 140
Lejos De La Ciudad
Kudai
Intro

---------------------------|
----0------0--------0------|
--3------3--------3---3----|
-1--------------4-------4--|
------4------2-------------|
---------------------------|
El acorde * es el siguiente...

----
-7--
-6--
-4--
-6--
----

 Fa#
El mismo lugar
   La#m
Las calles y el mar
   Si             Sim             Fa#
La luna ilumina las horas de mi soledad
  Do#  *  Si
¿Y donde estas?

      Fa#
Aun puedo escuchar
    La#m
Tus pasos tu andar
     Si            Sim
El viento me trae los besos que hoy ya no
   Fa#   Do#  Sol#m    Si
Estarán ¿Y donde estas?
Sol#m        Do#
Yo aquí te espero…


{Coro}

 Sol#m   Si  Fa#    La#m
Y aun recuerdo ese momento
    Sol#m   Si  Fa# Fa#/Mi
Tus besos al despertar
   Sol#m   Si      Fa#      La#m
La brisa el viento, la luz del puerto
    Sol#m    Si
Tan lejos de la ciudad…

El frió se irá, la luz volverá Y espero que entonces
El tiempo nos vuelva a encontrar
-----------------------------------------|
---------------2---------4---------3-----|
-----3-------3---3-----4---4-----4---4---|
----4--4----3------3--4-----4---4-----4--|
---4----4-1----------2--------2----------|
-2---------------------------------------|

              ¿Donde estarás?

--------------------------------------------------|
-------------------6-----------7------------4-----|
-------3---------6---6-------6----6-------4---4---|
-----4--4------6-------6---4--------4---4-------4-|
---4-----4---4-----------6------------2-----------|
-2------------------------------------------------|

Yo aquí te espero…


{Coro}

  Sol#m  Si  Fa#    La#m
Y aun recuerdo ese momento
    Sol#m    Si Fa#  Fa#/Mi
Tus besos al despertar
   Sol#m    Si     Fa#      La#m
La brisa, el viento, la luz del puerto
    Sol#m    Si Fa#m   Do#
Tan lejos de la ciudad…

Mim - Si - Re - La – Do#

{Coro}
  Sol#m  Si  Fa#    La#m
Y aun recuerdo ese momento
    Sol#m    Si   Fa# Fa#/Mi
Tus besos al despertar
   Sol#m    Si     Fa#      La#m
La brisa, el viento, la luz del puerto
    Sol#m   Si  Fa#  Fa#/Mi
Tan lejos de la ciudad
    Sol#m   Si  Fa#  La#m
Tan lejos de la ciudad
    Sol#m   Si  Fa#  Fa#/Mi
Tan lejos de la ciudad
   Sol#m    Si
Tan lejos de la ciudad…
Добавлено: 26.06.2012
Другие материалы по этой песне:
  • Аккорды и текст

Страница создана 25.04.2012
http://primanota.ru/kudai/lejos-de-la-ciudad-chords.htm
Привет, Гость.
Предлагаем пройти революционный курс по гитаре.
Подарок от PrimaNota.Ru, забирай!