PrimaNota.ru - самый крупный в мире бесплатный архив песенных текстов, аккордов, табулатур и нот


Kudai - Hoy No Estas - текст песни, таба, видео

Регистрация Запомнить меня
Войти через:  Facebook Google Twitter Vk Yandex Mail.ru

Kudai - Hoy No Estas - текст песни, таба, видео

Печатать
Просмотров: 159
-------------------------------------------------------------------------------
                            hoy no estas- kudai
-------------------------------------------------------------------------------
Tabbed by: wiritosk8
Email: wiritosk8@hotmail.com
video:  http://www.youtube.com/watch?v=JiTmbwwrfw8

verse 1:

e|----------0---------------0---------------0---------------0--------------|
B|------2-----2---2-----2-----2---2-----2-----2---2-----2-----2---2--------|
G|----2---2-----2-----2---2-----2-----2---2-----2-----2---2-----2----------|
D|--2---------------2---------------0---------------0----------------------|
A|-------------------------------------------------------------------------|
E|-------------------------------------------------------------------------|
                   Bajo una lluvia de dolor...

e|----------0---------------0---------------0---------------0--------------|
B|------2-----2---2-----2-----2---2-----3-----3---3-----3-----3---3--------|
G|----2---2-----2-----2---2-----2-----2---2-----2-----2---2-----2----------|
D|--2---------------2---------------0--------------------------------------|
A|--------------------------------------------------4----------------------|
E|-------------------------------------------------------------------------|
                  y un cielo gris que apaga el corazón...

e|-------------------------------------------------------------------------|
B|----------3---------------3---------------0---------------0--------------|
G|------4-----4---4-----4-----4---4-----1-----1---1-----1-----1---1--------|
D|----4---4-----4-----4---4-----4-----2---2-----2-----2---2-----2----------|
A|--2---------------2---------------2---------------2----------------------|
E|-------------------------------------------------------------------------|
                que fue regando mil historias de hojas rotas...


e|----------------------------------------------------------0--------------|
B|----------3---------------3---------------0-------------0----------------|
G|------4-----4---4-----4-----4---4-----1-----1---1-----1------------------|
D|----4---4-----4-----4---4-----4-----2---2-----2-----0--------------------|
A|--2---------------2---------------2---------------2----------------------|
E|-------------------------------------------------------------------------|
                   haciendo vivo este doloo0o0r...
  
choro:

e|--------------------------------------------------|
B|---------2-2-2-22-2-222----3-3-3-33-3-333---------|
G|---------2-2-2-22-2-222----2-2-2-22-2-222---------|
D|---------2-2-2-22-2-222---------------------------|
A|---------------------------------44-4-444---------|
E|--------------------------------------------------|
  Y hoy no estas   y ayer brillabas como el sol


e|--2-2-2-22-2-222---------------------------------------------------------|
B|--3-3-3-33-3-333---------------------------------------------------------|
G|--4-4-4-44-4-444----1-1-1-11-1-11-11-1-111-1-----2-2-2-22-2-222----------|
D|--4-4-4-44-4-444----2-2-2-22-2-22-00-0-000-0-----2-2-2-22-2-222----------|
A|--2-2-2-22-2-222----2-2-2-22-2-22-22-2-222-2-----2-2-2-22-2-222----------|
E|-------------------------------------------------------------------------|
  que se escondió una tarde y se hizo tarde y no volvió

e|-------------------2-2-2-22-2-222----------------------|
B|---3-3-3-33-3-333--3-3-3-33-3-333----------------------|
G|---2-2-2-22-2-222--4-4-4-44-4-444----1--1--1-----------|
D|-------------------4-4-4-44-4-444----2--2--0-----------|
A|---------44-4-444--2-2-2-22-2-222----2--2--2-----------|
E|-------------------------------------------------------|
  y en mi ventana vi el ...          tu... gota.       


verse 2:

e|--------------------------------------|
B|---2-2-2-22-2-222--2-2-2-22-2-222-----|
G|---2-2-2-22-2-222--2-2-2-22-2-222-----|
D|---2-2-2-22-2-222---------------------|
A|--------------------------------------|
E|--------------------------------------|
  Se hizo de noche y no brillo

e|--------------------------------------|
B|---2-2-2-22-2-222--3-3-3-33-3-333-----|
G|---2-2-2-22-2-222--2-2-2-22-2-222-----|
D|---2-2-2-22-2-222---------------------|
A|-------------------------44-4-444-----|
E|--------------------------------------|
   la luna que...      nos ilumino  

e|---2-2-2-22-2-222---------------------|
B|---3-3-3-33-3-333---------------------|
G|---4-4-4-44-4-444--1-1-1-11-1-111-----|
D|---4-4-4-44-4-444--2-2-2-22-2-222-----|
A|-------------------2-2-2-22-2-222-----|
E|--------------------------------------|
  y fui esperando.. mañana cada noche


e|---2-2-2-22-2-222----------|
B|---3-3-3-33-3-333----------|
G|---4-4-4-44-4-444--1-1-1---|
D|---4-4-4-44-4-444--2-2-0---|
A|-------------------2-2-2---|
E|---------------------------|
    y el día que  nunca llego


choro:

e|--------------------------------------------------|
B|---------2-2-2-22-2-222----3-3-3-33-3-333---------|
G|---------2-2-2-22-2-222----2-2-2-22-2-222---------|
D|---------2-2-2-22-2-222---------------------------|
A|---------------------------------44-4-444---------|
E|--------------------------------------------------|
  Y hoy no estas   y ayer brillabas como el sol


e|--2-2-2-22-2-222---------------------------------------------------------|
B|--3-3-3-33-3-333---------------------------------------------------------|
G|--4-4-4-44-4-444----1-1-1-11-1-11-11-1-111-1-----2-2-2-22-2-222----------|
D|--4-4-4-44-4-444----2-2-2-22-2-22-00-0-000-0-----2-2-2-22-2-222----------|
A|--2-2-2-22-2-222----2-2-2-22-2-22-22-2-222-2-----2-2-2-22-2-222----------|
E|-------------------------------------------------------------------------|
  que se escondió una tarde y se hizo tarde y no volvió

e|-------------------2-2-2-22-2-222----------------------|
B|---3-3-3-33-3-333--3-3-3-33-3-333----------------------|
G|---2-2-2-22-2-222--4-4-4-44-4-444----1--1--1-----------|
D|-------------------4-4-4-44-4-444----2--2--0-----------|
A|---------44-4-444--2-2-2-22-2-222----2--2--2-----------|
E|-------------------------------------------------------|
  y en mi ventana vi el ...          tu...  gota.        

verse 3:

e|---1-1-1-11-1-111--2-2-2-22-2-222-----|
B|---3-3-3-33-3-333--2-2-2-22-2-222-----|
G|---3-3-3-33-3-333--3-3-3-33-3-333-----|
D|---3-3-3-33-3-333--4-4-4-44-4-444-----|
A|---1-1-1-11-1-111--4-4-4-44-4-444-----|
E|-------------------2-2-2-22-2-222-----|
   Quizás mañana volverás

e|---2-2-2-22-2-222--2-2-2-------------------------1-1-1-11-1-111-|
B|---2-2-2-22-2-222--3-3-3-22-2-222----------------3-3-3-33-3-333-|
G|---3-3-3-33-3-333--4-4-4-22-2-222-1-1-1-11-1-111-3-3-3-33-3-333-|
D|---2-2-2-22-2-222--4-4-4-22-2-222-2-2-2-00-0-000-3-3-3-33-3-333-|
A|---4-4-4-44-4-444--2-2-2----------2-2-2-22-2-222-4-4-4-44-4-444-|
E|---2-2-2-22-2-222--------------------------------2-2-2-22-2-222-|
     y al anochecer la luna brillara  como lo hizo ayer

e|-------------------2-2-2-22-2-222-----|
B|-------------------2-2-2-22-2-222-----|
G|-------------------3-3-3-33-3-333-----|
D|-------------------4-4-4-44-4-444-----|
A|-------------------4-4-4-44-4-444-----|
E|-------------------2-2-2-22-2-222-----|
  y aunque ya no vuelvas más

e|---2-2-2-22-2-222--2-2-2-------------------------1-1-1-11-1-111-|
B|---2-2-2-22-2-222--3-3-3-22-2-222----------------3-3-3-33-3-333-|
G|---3-3-3-33-3-333--4-4-4-22-2-222-1-1-1-11-1-111-3-3-3-33-3-333-|
D|---2-2-2-22-2-222--4-4-4-22-2-222-2-2-2-00-0-000-3-3-3-33-3-333-|
A|---4-4-4-44-4-444--2-2-2----------2-2-2-22-2-222-4-4-4-44-4-444-|
E|---2-2-2-22-2-222--------------------------------2-2-2-22-2-222-|
               siempre   estaré  jamás   te   olvidare

choro:

e|---------4-4-4-44-4-444-------------------------------|
B|---------6-6-6-66-6-666----2-2-2-22-2-22-22-2-222-2---|
G|---------6-6-6-66-6-666----3-3-3-33-3-33-33-3-333-3---|
D|---------6-6-6-66-6-666----4-4-4-44-4-44-22-2-222-2---|
A|---------4-4-4-44-4-444----4-4-4-44-4-44-44-4-444-4---|
E|---------------------------2-2-2-22-2-22-22-2-222-2---|
  Y hoy no estas   y ayer brillabas como el sol


e|--6-6-6-66-6-666----4-4-4-44-4-44-44-4-444-4---4-4-4-44-4-444-----|
B|--7-7-7-77-7-777----4-4-4-44-4-44-44-4-444-4---6-6-6-66-6-666-----|
G|--8-8-8-88-8-888----5-5-5-55-5-55-55-5-555-5---6-6-6-66-6-666-----|
D|--8-8-8-88-8-888----6-6-6-66-6-66-44-4-444-4---6-6-6-66-6-666-----|
A|--6-6-6-66-6-666----6-6-6-66-6-66-66-6-666-6---4-4-4-44-4-444-----|
E|--------------------4-4-4-44-4-44-44-4-444-4----------------------|
  que se escondió una tarde y se hizo tarde y no volvió

e|--2-2-2-22-2-22-22-2-222-2----6-6---4-------|
B|--2-2-2-22-2-22-22-2-222-2----7-7---4-------|
G|--3-3-3-33-3-33-33-3-333-3----8-8---5-------|
D|--4-4-4-44-4-44-22-2-222-2----8-8---6-------|
A|--4-4-4-44-4-44-44-4-444-4----6-6---6-------|
E|--2-2-2-22-2-22-22-2-222-2----------4-------|
     ventana vi el ...         tu...  gota.        


e|---------4-4-4-44-4-444-------------------------------|
B|---------6-6-6-66-6-666----2-2-2-22-2-22-22-2-222-2---|
G|---------6-6-6-66-6-666----3-3-3-33-3-33-33-3-333-3---|
D|---------6-6-6-66-6-666----4-4-4-44-4-44-22-2-222-2---|
A|---------4-4-4-44-4-444----4-4-4-44-4-44-44-4-444-4---|
E|---------------------------2-2-2-22-2-22-22-2-222-2---|


e|---6-6-6-66-6-666-4-4-4-44-4-444--------|
B|---7-7-7-77-7-777-5-5-5-55-5-555--------|
G|---8-8-8-88-8-888-6-6-6-66-6-666--------|
D|---8-8-8-88-8-888-6-6-6-66-6-666--------|
A|---6-6-6-66-6-666-4-4-4-44-4-444--------|
E|----------------------------------------|
        tu rostro en cada gota

Добавлено: 16.06.2012
Другие материалы по этой песне:
  • Аккорды и текст

Страница создана 05.04.2012
http://primanota.ru/kudai/hoy-no-estas-chords.htm
Привет, Гость.
Предлагаем пройти революционный курс по гитаре.
Подарок от PrimaNota.Ru, забирай!