PrimaNota.ru - самый крупный в мире бесплатный архив песенных текстов, аккордов, табулатур и нот


Kud - Elleboog - таба, видео

Регистрация Запомнить меня
Войти через:  Facebook Google Twitter Vk Yandex Mail.ru

Kud - Elleboog - таба, видео

Печатать
Просмотров: 53
E|-------------------------------------------|
B|-------------------------------------------|
G|-------------------------------------------|
D|-------------------------------------------|
A|----------------4--------------4--------7--|
E|----2--2--2--2--2--2--2--2--2--2--2--2--5--|


E|-----------------------------------------------|
B|-----------------------------------------------|
G|-----------------------------------------------|
D|-----------------------------------------------|
A|--------------4--------------7--7--7--7--7--7--|
E|--2--2--2--2--2--2--2--2--2--5--5--5--5--5--5--|


E|-----------------------------------------|
B|-----------------------------------------|
G|-----------------------------------------|
D|-----------------------------------------|
A|--------------4--------------4--------7--|
E|--2--2--2--2--2--2--2--2--2--2--2--2--5--|


E|-----------------------------------|
B|-----------------------------------|
G|-----------------------------------|
D|-----------------------9--7--6--4--|
A|--------------4--------7--5--4--2--|
E|--2--2--2--2--2--2--2--------------|


E|-------------------------------------------|
B|-------------------------------------------|
G|-------------------------------------------|
D|-------------------------------------------|
A|----------------4--------------4--------7--|
E|----2--2--2--2--2--2--2--2--2--2--2--2--5--|


E|-----------------------------------------------|
B|-----------------------------------------------|
G|-----------------------------------------------|
D|-----------------------------------------------|
A|--------------4--------------7--7--7--7--7--7--|
E|--2--2--2--2--2--2--2--2--2--5--5--5--5--5--5--|


E|-----------------------------------------|
B|-----------------------------------------|
G|-----------------------------------------|
D|-----------------------------------------|
A|--------------4--------------4--------7--|
E|--2--2--2--2--2--2--2--2--2--2--2--2--5--|


E|-----------------------------------|
B|-----------------------------------|
G|-----------------------------------|
D|-----------------------9--7--6--4--|
A|--------------4--------7--5--4--2--|
E|--2--2--2--2--2--2--2--------------|

E|----------------------------------------------------------------------------|
B|----------------------------------5--7--------------------------------------|
G|-------------------------4--6--7-----------------------------6--4-----------|
D|----------------4--6--7-----------------------------4--6--7--------7--6--4--|
A|----4--4--4--4--------------------------4--4--4--4--------------------------|
E|----2--2--2--2--------------------------2--2--2--2--------------------------|

E|-------------------------------------------|
B|-------------------------------------------|
G|-------------------------------------------|
D|-------------------------------------------|
A|----------------4--------------4--------7--|
E|----2--2--2--2--2--2--2--2--2--2--2--2--5--|


E|-----------------------------------------------|
B|-----------------------------------------------|
G|-----------------------------------------------|
D|-----------------------------------------------|
A|--------------4--------------7--7--7--7--7--7--|
E|--2--2--2--2--2--2--2--2--2--5--5--5--5--5--5--|


E|-----------------------------------------|
B|-----------------------------------------|
G|-----------------------------------------|
D|-----------------------------------------|
A|--------------4--------------4--------7--|
E|--2--2--2--2--2--2--2--2--2--2--2--2--5--|


E|-----------------------------------|
B|-----------------------------------|
G|-----------------------------------|
D|-----------------------9--7--6--4--|
A|--------------4--------7--5--4--2--|
E|--2--2--2--2--2--2--2--------------|

E|---------------------------------------14h19--14h17--14h16--14h17--14h19--14h17--14h16--14h17--|
B|----17b19--17b19--17b19--20b21--20b21----------------------------------------------------------|
G|-----------------------------------------------------------------------------------------------|
D|-----------------------------------------------------------------------------------------------|
A|-----------------------------------------------------------------------------------------------|
E|-----------------------------------------------------------------------------------------------|


E|----14h19--14h17--14h16--14h17--14h17--14h17--14h17--14h17--|
B|------------------------------------------------------------|
G|------------------------------------------------------------|
D|------------------------------------------------------------|
A|------------------------------------------------------------|
E|------------------------------------------------------------|


E|--------------19--21--22--24--24b26-----|
B|--19--21--22----------------------------|
G|----------------------------------------|
D|----------------------------------------|
A|----------------------------------------|
E|----------------------------------------|
Добавлено: 24.12.2015
Другие материалы по этой песне:
  • Аккорды и текст

Страница создана 24.12.2015
http://primanota.ru/kud/elleboog-chords.htm
Привет, Гость.
Предлагаем пройти революционный курс по гитаре.
Подарок от PrimaNota.Ru, забирай!