PrimaNota.ru - самый крупный в мире бесплатный архив песенных текстов, аккордов, табулатур и нот


Kt Tunstall - You To Me Are Everything - аккорды и текст, видео

Регистрация Запомнить меня
Войти через:  Facebook Google Twitter Vk Yandex Mail.ru

Kt Tunstall - You To Me Are Everything - аккорды и текст, видео

Печатать
Просмотров: 94
Уроки эстрадного вокала в Санкт-Петербурге
You To Me Are Everything
Kt Tunstall
Kt Tunstall
“You to Me Are Everything” cover 
Originally by The Real Thing

Intro:
G 
Am7  w/3rd fret high e
Dsus4 
D

Verse 1:
     G                                  G/F#
E-----3----------------------------------2--|
B-----0----------------------------------3--|
G-----0----------------------------------0--|
D-----0----------------------------------0--|
A-----2----------------------------------2--|
E-----3----------------------------------x--|
Well  I would take the stars out of the sky for you, 
stop the rain from fallin' if you asked me to
   Am                             Em7
E--0------------------------------0---------------|
B--1------------------------------3---------------|
G--2------------------------------0---------------|
D--2------------------------------2---------------|
A--0------------------------------2---------------|
E--x------------------------------0---------------|
   I'd do anything for you, your wish is my command
   Am                                D7               D7
E--0---------------------------------2-------------3--2--|
B--1---------------------------------1-------------1--1--|
G--2---------------------------------2-------------2--2--|
D--2---------------------------------0-------------0--0--|
A--0---------------------------------x-------------x--x--|
E--x---------------------------------x-------------x--x--|
   I could move a mountain when your hand is in my hand 

Words cannot express how much you mean to me, 
there must be some other way to make you see-e-e
If it takes my heart and soul, you know I'll pay the price
Ev'rything that I possess I'd gladly sacrifice

Chorus: (tambourine comes in)
G
You to me are everything,
    G/F#                                Am          D7 D7add 
the sweetest song that I could sing, oh baby, oh baby 
G
To you I guess I'm just a clown
G/F#                                       Am         D7 
who picks you up each time you're down, oh baby, oh baby
Am                              D7
You give me just enough love to build my hopes upon, 
Am                                       D7
you know you've got the power, boy, to kee-ep me holdin' on
    G                  Am
but now you've got the best of me, 

     Am7              D7             G (intro)
come on and take the rest of me, oh baby 

Verse 2:
Though you're close to me, you seem so far apart

Maybe, given time, you'll have a change of heart(descend)
                                   (up)
And if it takes forever, boy, then I'm prepared to wait
                            (up)               (up)
‘Cause the day ya give your love to me it won't be a day too late

Chorus, then key change (vocal)       hit high note   descend
                                           \ /
Well, you to me are everything..(..to keep me holdin on-on-on)

Ye-eah--well now you got the best of me why duncha c'mon and take the rest of me 
oh baby yea yeeah yea 
you to me are everything
Oh
  Oh  
    Oh
        oh
You to me are everything
Добавлено: 27.06.2013
Другие материалы по этой песне:
  • Аккорды и текст

Страница создана 27.06.2013
http://primanota.ru/kt-tunstall/you-to-me-are-everything-chords.htm
Привет, Гость.
Предлагаем пройти революционный курс по гитаре.
Подарок от PrimaNota.Ru, забирай!