PrimaNota.ru - самый крупный в мире бесплатный архив песенных текстов, аккордов, табулатур и нот


KSI - Smoke N Mirrors - бас-таба, видео

Регистрация Запомнить меня
Войти через:  Facebook Google Twitter Vk Yandex Mail.ru

KSI - Smoke N Mirrors - бас-таба, видео

Печатать
Просмотров: 66
-------------------------------------------------------------------------------
        Smoke 'N' Mirrors - KSI, ft Tiggs Da Author, Lunar C & Nick Brewer
-------------------------------------------------------------------------------
Tabbed by: Albin 
E-mail: AlbinNilsson1999@gmail.com

Tuning: Standard

G|---------------------------------------------------------------------------|
D|---------------------------------------------------------------------------|
A|---------5h7p5~~(p)7~~7-7--5-2---0h2p0h2p0---------------------------------|
E|0-0--3-5--------------------------------------0~~--------------------------|

*Can also be played*

G|---------------------------------------------------------------------------|
D|---------------------------------------------------------------------------|
A|---------5h7p5~~(p)7~~0-0--5-2---0h2p0h2p0---------------------------------|
E|0-0--3-5--------------------------------------0~~--------------------------|

The song keeps going on like this, but in the original they skip some notes 
sometimes but it doesn't really  matter! 

This is my first tab ever!
Please leave a comment and rate the tab!



| /  slide up
| \  slide down
| h  hammer-on
| p  pull-off
| ~  vibrato
| +  harmonic
| x  Mute note
===============================================================================
Добавлено: 07.04.2016
Вам также может быть интересно:
Другие материалы по этой песне:
  • Аккорды и текст

Страница создана 07.04.2016
http://primanota.ru/ksi/smoke-n-mirrors-chords.htm
Привет, Гость.
Предлагаем пройти революционный курс по гитаре.
Подарок от PrimaNota.Ru, забирай!