PrimaNota.ru - самый крупный в мире бесплатный архив песенных текстов, аккордов, табулатур и нот


Ks Choice - I m not an addict - бас-таба, видео

Регистрация Запомнить меня
Войти через:  Facebook Google Twitter Vk Yandex Mail.ru

Ks Choice - I m not an addict - бас-таба, видео

Печатать
Просмотров: 120
Уроки эстрадного вокала в Санкт-Петербурге


From: Mike Tysor
email: miketysor@hotmail.com
Subject: k/ks_choice/i'm_not_an_addict.btab

Band:K's Choice
Song:Not An Addict
Album: Paradise In Me

Beautiful, yet depressing song.  Very simple  

intro
-------------------------------------------------------------
-------------------------------------------------------------
---0-4-2----6-7-6-2-0---0-4-2--2/4--------------------------
------------------------------------0------------------------
Oooooh... oooh....

Verse
------------------------------------------------------------
------------------------------------------------------------
---0-4-2------------2/4--------0-4--2----0-2-2-------------
-------------------------0----------------------------------
Breathe it in...                We're so



------------------------------------------------------------
------------------------------------------------------------
------------------------------------------------------------
-0-2-5---0-2-5--------5-2-0--0-2-5--0-2-5-------------------
If you don't have it         Deeper you stick it in the vein


---2-6-4--------8-9-8----2-6-4----6---2-6-4-----------------
-2----------------------------------------------------------
----------------------0-------------0-----------------------
------------------------------------------------------------


------------------------------------------------------------
------------------------------------------------------------
------------------------------------------------------------
-0-2-5------------------------------------------------------
It's not a habit...

Refrain
------------------------------------------------------------
------7/9-9-9-9-7-7-7/9-9-9-9-------7/9-9-9-9-7-7-7/9-9-9-9-
-7-5----------------------------7-5-------------------------
------------------------------------------------------------
                                       Free me, free me

------------------------------------------------------------
--10-10-----------------------------------------------------
------------------------------------------------------------
------------------------------------------------------------

Back to verse 4x


Добавлено: 17.09.2013
Другие материалы по этой песне:
  • Аккорды и текст

Страница создана 17.09.2013
http://primanota.ru/ks-choice/i-m-not-an-addict-chords.htm
Привет, Гость.
Предлагаем пройти революционный курс по гитаре.
Подарок от PrimaNota.Ru, забирай!