PrimaNota.ru - самый крупный в мире бесплатный архив песенных текстов, аккордов, табулатур и нот


Ks Choice - All - текст песни, таба, видео

Регистрация Запомнить меня
Войти через:  Facebook Google Twitter Vk Yandex Mail.ru

Ks Choice - All - текст песни, таба, видео

Печатать
Просмотров: 128
CAPO ON 2nd FRET!

e|------------------------------------------|
B|------3---------3---------3---------3-----|
G|----0---0-----0---0-----0---0-----0---0---|
D|--2---------2---------0-------------------|
A|-------------------------------3----------|
G|------------------------------------------|
Is there anything you want from me

e|------------------------------------------|
B|------3---------3---------3---------3-----|
G|----0---0-----0---0-----0---0-----0---0---|
D|--2---------2---------0-------------------|
A|-------------------------------3----------|
G|------------------------------------------|
My arms my life my energy

e|------------------------------------------|
B|------3---------3---------3---------3-----|
G|----0---0-----0---0-----0---0-----0---0---|
D|------------------------------------------|
A|--2---------3---------2---------3---------|
E|------------------------------------------|
I   don't     know how  far       I can go

e|------------------------------------------|
B|------3---------3---------3---------3-----|
G|----0---0-----0---0-----0---0-----0---0---|
D|--2---------2---------0-------------------|
A|-------------------------------3----------|
G|------------------------------------------|
                     And everything sits low

e|------------------------------------------|
B|------3---------3---------3---------3-----|
G|----0---0-----0---0-----0---0-----0---0---|
D|--2---------2---------0-------------------|
A|-------------------------------3----------|
G|------------------------------------------|
                        But you know how it 

e|------------------------------------------|
B|------3---------3---------3---------3-----|
G|----0---0-----0---0-----0---0-----0---0---|
D|------------------------------------------|
A|--2---------3---------2---------3---------|
E|------------------------------------------|
    goes      when you're used to your 

e|------------------------------------------|
B|------3---------3---------2---------2h3---|
G|----0---0-----0---0-----------------------|
D|------------------------------------------|
A|--1---------1---------0---------0---------|
E|------------------------------------------|
    side of the bed

e|------------------------------------------|
B|------3---------3---------3---------3-----|
G|----0---0-----0---0-----0---0-----0---0---|
D|--2---------2---------3---------3---------|
A|------------------------------------------|
E|------------------------------------------|
And I know              you don't be-

e|------------------------------------------|
B|------1---------1---------1---------1-----|
G|----0---0-----0---0-----0---0-----0---0---|
D|--2---------2---------1---------1---------|
A|------------------------------------------|
E|------------------------------------------|
long in this room   But you're 

e|------------------------------------------|
B|------0---------0---------0---------0-----|
G|----0---0-----0---0-----0---0-----0---0---|
D|------------------------------------------|
A|--5---------5---------4---------4---------|
E|------------------------------------------|
here now so what can I do

e|------------------------------------------|
B|------1---------1---------1---------3-----|
G|----0---0-----0---0-----0---0-------------|
D|--------------------------------------5---|
A|--3---------3---------3---------3/5-------|
E|------------------------------------------|


   G                 D                 Em                C
e|-----------------|-----------------|-----------------|-----------------|
B|-----0-------0---|-----3-------3---|-----0-------0---|-----1-------1---|
G|---0---0---0---0-|---2---2---2---2-|---0---0---0---0-|---0---0---0---0-|
D|-----------------|-----------------|-----------------|-----------------|
A|-----------------|-----------------|-----------------|-3-------3-------|
E|-3-------3-------|-2-------2-------|-0-------0-------|-----------------|
   All    that   I   am      is        all   I     was   taught  to be


   A                 F#m               D/B     D/C#      D       A/D       D
e|-----------------|-----------------|-----------------|-----------------|---------------|
B|-----0-------0---|-----0-------0---|-----1-------1---|-----1-------0---|---------------|
G|---0---0---0---0-|---0---0---0---0-|---0---0---0---0-|---0---0---0---0-|---------------|
D|-----------------|-----------------|-----------------|-----------------|---------------|
A|-----------------|-----------------|-0-------2-------|-3-------3-------|-3-------------|
E|-3-------3-------|-0-------0-------|-----------------|-----------------|---------------|
   All    that   you    are    is   a  wall   between   myself                And me

Have you ever really looked at me
Or thought about me secretly
Do I make you wonder at all about the speed of light
Outside our little world we might not feel so alone 

And I know you don't belong in this room
But you're here now so what can I do

All that I am is all I was thaught to be
All that you are is a wall between myself
And me


Добавлено: 27.02.2012
Другие материалы по этой песне:

Страница создана 21.02.2012
http://primanota.ru/ks-choice/all-chords.htm
Привет, Гость.
Предлагаем пройти революционный курс по гитаре.
Подарок от PrimaNota.Ru, забирай!