PrimaNota.ru - самый крупный в мире бесплатный архив песенных текстов, аккордов, табулатур и нот


Krymplings - Dunken - таба, видео

Регистрация Запомнить меня
Войти через:  Facebook Google Twitter Vk Yandex Mail.ru

Krymplings - Dunken - таба, видео

Печатать
Просмотров: 94
-------------------------------------------------------------------------------
           Axwell & Ingrosso feat. Salem Al Fakir - On My Way
-------------------------------------------------------------------------------
Tabbed by: Moltas Bengtsson
E-mail: moltas.bengtsson1@gmail.com

Standard tuning.

Intro: x4
|--------------------------------|
|--------------------------------|
|-----2-2-5-5-4-4-4-4-4-4-4-4----|
|-2-2-2-2-5-5-4-4-4-4-4-4-4-4----|
|-2-2-0-0-3-3-2-2-2-2-2-2-2-2----|
|-0-0----------------------------|

Verse: x6
|--------------------------------------------------------------------|
|--------------------------------------------------------------------|
|---------5-5-5-5-4-4-4-4-4-4-4-4------------------------------------|
|-2-2-2-2-5-5-5-5-4-4-4-4-4-4-4-4------------------------------------|
|-2-2-2-2-3-3-3-3-2-2-2-2-2-2-2-2------------------------------------|
|-0-0-0-0------------------------------------------------------------|

Pre-chorus: x1
|--------------------------------------------------------------------|
|--------------------------------------------------------------------|
|---------5-5-5-5-4-4-4-4-4-4-4-4-5-5-5-5-5-5-5-5-7-7-7-7-7-7-7-7----|
|-2-2-2-2-5-5-5-5-4-4-4-4-4-4-4-4-5-5-5-5-5-5-5-5-7-7-7-7-7-7-7-7----|
|-2-2-2-2-3-3-3-3-2-2-2-2-2-2-2-2-3-3-3-3-3-3-3-3-5-5-5-5-5-5-5-5----|
|-0-0-0-0------------------------------------------------------------|

Chorus: x2
|-----------------------------------------------------------------
|-----------------------------------------------------------------
|-----------------4-4-4-4-4-4-4-4-9-9-9-9-9-9-9-9-5-5-5-5-5-5-5-5-
|-5-5-5-5-5-5-5-5-4-4-4-4-4-4-4-4-9-9-9-9-9-9-9-9-5-5-5-5-5-5-5-5-
|-5-5-5-5-5-5-5-5-2-2-2-2-2-2-2-2-7-7-7-7-7-7-7-7-3-3-3-3-3-3-3-3-
|-3-3-3-3-3-3-3-3-------------------------------------------------

 --------------------------------------------------------------------|
 --------------------------------------------------------------------|
 -----------------4-4-4-4-4-4-4-4-5-5-5-5-5-5-5-5-7-7-7-7-7-7-7-7----|
 -5-5-5-5-5-5-5-5-4-4-4-4-4-4-4-4-5-5-5-5-5-5-5-5-7-7-7-7-7-7-7-7----|
 -5-5-5-5-5-5-5-5-2-2-2-2-2-2-2-2-3-3-3-3-3-3-3-3-5-5-5-5-5-5-5-5----|
 -3-3-3-3-3-3-3-3----------------------------------------------------|

Ending chorus, play faster and faster for each time: 
|-----------------------------------------------------------------|
|-----------------------------------------------------------------|
|-----------------4-4-4-4-4-4-4-4-9-9-9-9-9-9-9-9-5-5-5-5-5-5-5-5-|
|-5-5-5-5-5-5-5-5-4-4-4-4-4-4-4-4-9-9-9-9-9-9-9-9-5-5-5-5-5-5-5-5-|
|-5-5-5-5-5-5-5-5-2-2-2-2-2-2-2-2-7-7-7-7-7-7-7-7-3-3-3-3-3-3-3-3-|
|-3-3-3-3-3-3-3-3-------------------------------------------------|

Intro x4
Verse x6
Pre-chorus: x1
Chorus: x2
Intro x4
Verse x6
Pre-chorus: x1
Chorus: x2

Du sitter i din boning och glor på dumma burken
Då ringer det på dörren och du blir jävligt purken
Du reser dej sakta och skriker mot dörren: Kom in!
In stiger Jonsson och skrattar och säger:
Här kommer tomten med hembrända grejer
Jag morrar och rapar: Bjud på ett glas
Nu ska vi supa oss fulla som as

Jag är dunken skattefria dunken
jag skänker glädje och jag skänker mod
Jag är dunken skattefria dunken
Jag är vännen hela dan

Jag super ofta ja nästan varje dag och jag blir glad
när spriten värmer min kropp
Att du blir sliten är smällar du får ta
när man är glad
för spriten är vännen hela dan

Jag är dunken skattefria dunken
jag skänker glädje och jag skänker mod
Jag är dunken skattefria dunken
Jag är vännen hela dan

Du är dunken skattefria dunken 
Du skänker glädje och du skänker mod

Dunken dunken dunken dunken dunken dunken!
Добавлено: 06.11.2015
Другие материалы по этой песне:
  • Аккорды и текст

Страница создана 06.11.2015
http://primanota.ru/krymplings/dunken-chords.htm
Привет, Гость.
Предлагаем пройти революционный курс по гитаре.
Подарок от PrimaNota.Ru, забирай!