PrimaNota.ru - самый крупный в мире бесплатный архив песенных текстов, аккордов, табулатур и нот


Krupps Die - Nazis Auf Speed - таба, видео

Регистрация Запомнить меня
Войти через:  Facebook Google Twitter Vk Yandex Mail.ru

Krupps Die - Nazis Auf Speed - таба, видео

Печатать
Просмотров: 129
Авторы музыки: Marcel Zürcher, Jürgen Engler
Авторы текста: Ralf Dörper
-------------------------------------------------------------------------------
                             Nazis Auf Speed - Die Krupps
-------------------------------------------------------------------------------

Tabbed by: Frank Koch
E-mail: frank_koch12@web.de
Date: 27.11.2014

Tuning: Standard, Die Krupps play it in D Tuning and I play it in Drop D


Intro: Guitar heavy distortion + Chorus

e|------------------|-----------------|-----------------|-------------------|
B|------------------|-----------------|-----------------|-------------------|
G|-/9-9-9-9-9-9-9-9-|-9-9-9-9-9-9-9-9-|-4-4-4-4-4-4-4-4-|-------------------|
D|------------------|-----------------|-----------------|-/6-6-6-6-6-6-6-6--|
A|------------------|-----------------|-----------------|-------------------|
E|------------------|-----------------|-----------------|-------------------|
Note: every beat is played in double time


Main Riff: Synthesizer 

    E                                     E
e|------------------|------------------|------------------|-----------------|
B|------------------|------------------|------------------|-----------------|
G|------------------|------------------|------------------|-----------------|
D|------------------|------------------|------------------|-----------------|
A|------7---8-7---7-|---8-5-8-7---10-8-|------7---8-7---8-|---8-5-8-7---8-7-|
E|----0---0-----0---|-0---------0------|----0---0-----7---|-0---------0-----|

Main Riff: Guitar heavy distortion

    E                                     E
e|------------------|------------------|------------------|-----------------|
B|------------------|------------------|------------------|-----------------|
G|------------------|------------------|------------------|-----------------|
D|----2-2-2-3\2-2-2-|-2-2-3--(2)--5\3--|----2-2-2-3\2-2-3-|-2-2-3--(2)--3\2-|
A|----2-2-2-3\2-2-2-|-2-2-3--(2)--5\3--|----2-2-2-3\2-2-3-|-2-2-3--(2)--3\2-|
E|----0-0-0-1\0-0-0-|-0-0-1--(0)--3\1--|----0-0-0-1\0-0-1-|-0-0-1--(0)--1\0-|
pm    .   .     .     . .     .             .   .     .     . .     . 

Note: The Rythm of the Main Riff can be learned the best way if you first
start to play the Main Riff of the Synthesizer. For other tunings than standard
simply use a capo to do that. An eighth pause is marked with E.


Bridge: Guitar heavy distortion

e|------------------|-------------------|
B|------------------|-------------------|
G|------------------|-------------------|
D|-/5r--------------|-4r------3r--------|
A|-/5r--------------|-4r------3r--------|
E|-/3r--------------|-2r------1r--------|



Song structure:


Intro 2x
Intro 3x + Main Riff Synthesizer 3x
Intro 1x + Main Riff Synthesizer 1x + first quote

Main Riff Guitar + Main Riff Synthesizer

Main Riff Synthesizer + first verse
  every 4th line play the Bridge

2 beats pause

Main Riff Guitar + Main Riff Synthesizer

Main Riff Synthesizer + second verse
  every 4th line play the Bridge

Main Riff Synthesizer + second quote

Main Riff Guitar + Main Riff Synthesizer
  played a couple of times and then the the
  Intro is played as outro additionally



Lyrics:


first quote:

"Das Erreichen des militärisches Ziels hat oberste Priorität.
Die Gesundheit des Soldaten ist dem untergeordnet."


first verse:

Kameraden gebt gut acht,
ich hab euch etwas mitgebracht.
Dieses Pulver lässt euch fliegen
und jeden Gegner schnell besiegen.

Ein Produkt der Meisterklasse,
eine wahre Wunderwaffe.
Dieses Pulver ist famos,
ist die Furch auch riesengroß.

Nimm eine Priese mit Plaisir
und den Feind dann ins Visier.
Steigt hinauf ins Firmament,
Bis dass die Maschine brennt!


refrain:

Rammt sie!
Rammt sie!
Rammt sie!

Rammt sie!
Rammt sie!
Rammt sie - mit voller Kraft!


second verse:

Mit der kleinen Dosis Speed
eilt ihr dann von Sieg zu Sieg.
Keine Grenze kann euch halten
und es bleibt nichts mehr beim Alten.

Ihr seid Herrscher in der Luft,
ohne Rücksicht auf Verlust.
Und im Jubeln schon die Massen.
Der Feind wird euch dafür hassen!

Ohne Schlaf und ohne Morgen,
denn es wartet schon ein Orden.
Haltet euch noch für verwegen.
Rast der Erde schon entgegen.


second quote:
"Der Start war sehr oft spät - Zehn Uhr, Elf Uhr.
Dann war man ungefähr um Ein Uhr, Zwei Uhr morgens,
war man über London oder über irgendner andern
englischen Stadt. Da ist man natürlich müde.
Und dann, wenn man das merkte, das durfte ja keinesfalls
der Fall sein, hat man eins, zwei Tabletten Pervitin
geschluckt. Und dann gings wieder!"


************************************

| pm  palm muting
| /   slide up
| \   slide down
| r   let it ring

************************************
Добавлено: 13.08.2015
Другие материалы по этой песне:
  • Аккорды и текст

Страница создана 13.08.2015
http://primanota.ru/krupps-die/nazis-auf-speed-chords.htm
Привет, Гость.
Предлагаем пройти революционный курс по гитаре.
Подарок от PrimaNota.Ru, забирай!