PrimaNota.ru - самый крупный в мире бесплатный архив песенных текстов, аккордов, табулатур и нот


Круиз - Не Верьте Тишине - аккорды и текст, видео

Регистрация Запомнить меня
Войти через:  Facebook Google Twitter Vk Yandex Mail.ru

Круиз - Не Верьте Тишине - аккорды и текст, видео

Печатать
Просмотров: 469
Не Верьте Тишине
Круиз
Круиз - Не верьте тишине(А.Кирницкий - В.Гаина)
Проигрыш.
1|-------------------------------------------------------------------------|
2|-------------------------------------------------------------------------|
3|----------------------6-6-6--9--8--------------------6-6-6---------------| x2
4|-6-6-------4p4p-------6-6-6--9--8-6-------4p4p-------6-6-6------------6--|
5|-6-6-------4p4p-------4-4-4--7--6-6-------4p4p-------4-4-4--7-6-5-4---6--|
6|-4-4-4-3-2-2p2p-2-3-4-------------4-4-3-2-2p2p-2-3-4----------------2-4--|
Куплет.
1|---------------------------------------------------------|
2|---------------------------------------------------------|
3|---------6---9--8--------------------6-6-6---------------|
4|-6---4---6---9--8-6-------4p4p-------6-6-6------------6--|
5|-6---4---4---7--6-6-------4p4p-------4-4-4--7-6-5-4---6--|
6|-4---2------------4-4-3-2-2p2p-2-3-4----------------2-4--|
1|--------------------------------------------------------|
2|--------------------------------------------------------|
3|---------6---9--8--------------------6-6-6-----------9--|
4|-6---4---6---9--8-6-------4p4p-------6-6-6-----------9--|
5|-6---4---4---7--6-6-------4p4p-------4-4-4--7-6-5-4--7--|
6|-4---2------------4-4-3-2-2p2p-2-3-4----------------2---|
Припев.
1|------------------------------------------------------------------------|
2|------------------------------------------------------------------------|
3|-9----9^--8----8^--------------------9----9^----8^--------------------9-|
4|-9----9^--8----8^--6----6-6----------9----9^----8^-6----6-------------9-|
5|-7-7p-7^--6-6p-6^--6----6-6----------7-7p-7^-6p-6^-6----6-------5-4---7-|
6|-------------------4-4p-4-4-4-5-8-7-4--------------4-4p-4-4-5-6-----4---|
1|------------------------------------------------------------|
2|------------------------------------------------------------|
3|-9----9^--8----8^--------------------9----9^----9^-8-8-8-8--|
4|-9----9^--8----8^--6----6-6----------9----9^----9^-8-8-8-8--|
5|-7-7p-7^--6-6p-6^--6----6-6----------7-7p-7^-7p-7^-6-6-6-6--|
6|-------------------4-4p-4-4-4-5-8-7-4-----------------------|
Проигрыш x2
Куплет.
Припев.
Solo.
1|------------------------------------------------------------------------------
-------
2|------------------------------------------------------------------------------
-------
3|---------10h12h10-------------------------------------------------------------
-------
4|-------------------10-12^--10h12-12--10-10-12-10------------------------------
-------
5|-------------------------------------------------10-12^--10h12h10-------------
-10-12-
6|-4^~12^-----------------------------------------------------------10-12^--10-1
2------
1|------------------------------------------------------------------------------
-------
2|------------------88-10^-1010-12^-1212-14^--12h14h12h14-----------------------
-------
3|-------10-12-14^----------------------------------------11~12h14h12h14--------
-------
4|-10-12-----------------------------------------------------------------12h14h1
2-1212^
5|------------------------------------------------------------------------------
-------
6|------------------------------------------------------------------------------
-------
1|------------------------------------------------------------------------------
---|
2|------------------------------------------------------------------------------
---|
3|--------------------------------------1212-14^--10h12h10----------------------
---|
4|-1010-12-10-12^--1010-12--------------------------------10h12h10--------------
---|
5|-------------------------1210------------------------------------10h12h10-----
---|
6|------------------------------1210^---------------------------------------10-1
2^-|
Припев(x2)
Solo.
1|------------------------------------------------------------------------------
---
2|------------------------------------------------------------------------------
---
3|----------------12^-12^-12^-10^----------------------12^-12^-12^-12^-12^-10^~1
4^-
4|-9^-7^--12^-10^-----------------12^---9^-7^--12^-10^--------------------------
---
5|------------------------------------------------------------------------------
---
6|------------------------------------------------------------------------------
---
1|------------------------------------------------------------------------------
---
2|------------------------------------------------------------------------------
---
3|---------------------------14^-14h12h14--------------------14^-14^-12^--------
---
4|-12^-12-10----12^-12-10-----------------12-10^------10-9^-------------14^-12^-
---
5|-----------12-----------12----------------------------------------------------
---
6|------------------------------------------------------------------------------
---
1|--------------|
2|--------------|
3|--------------|
4|-----------6--|
5|-7-6-5-4---6--|
6|---------2-4--|
ОБОЗНАЧЕНИЯ
^  - потянуть струну
h  - хаммер
~  - слайд (скольжение)
p  - приглушка
x2 - сыграть партию 2 раза
Добавлено: 17.07.2012
Другие материалы по этой песне:
  • Аккорды и текст

Страница создана 17.07.2012
http://primanota.ru/kruiz-2/ne-verte-tishine-chords.htm
Привет, Гость.
Предлагаем пройти революционный курс по гитаре.
Подарок от PrimaNota.Ru, забирай!