PrimaNota.ru - самый крупный в мире бесплатный архив песенных текстов, аккордов, табулатур и нот


Kromlek - Svart Metall - таба, видео

Регистрация Запомнить меня
Войти через:  Facebook Google Twitter Vk Yandex Mail.ru

Kromlek - Svart Metall - таба, видео

Печатать
Просмотров: 129
“Svart Metall” from “Kromlek”
Album “Strange Rumours…Distant Tremors”

/ slide up or down
. palm mute
p pull off

This is the first song I tabbed so don't expect perfection hehe.
You'll need the song for the rhythm etc.
Contact me if it needs work.

part 1
|---------------------------------------------------|
|--------------------------------------6p5-5-6------|
|-----------------------------------------7---------|
|-2--2--2--2--2—-2—-2—-2-—2—-2-—2--2----------------|
|-0--0--0--0--0—-0—-0--0--0--0—-0--0----------------|
|---------------------------------------------------|
  .     .     .     .     .     .

part 2
|--------------------------------------6p5-5-6------|
|-----------------------------------------8---------|
|-2--2--2--2--2—-2—-2—-2-—2—-2-—2--2----------------|
|-0--0--0--0--0—-0—-0--0--0--0—-0--0----------------|
|---------------------------------------------------|
|---------------------------------------------------|
  .     .     .     .     .     .

part 3
|0/5------5-7-8--7--3------3-5-6--5-----------------|
|---------------------------------------------------|
|---------------------------------------------------|
|---------------------------------------------------|
|---------------------------------------------------|
|---------------------------------------------------|

part 4
|---------------------------------------------------|
|---------------------------------------------------|
|---------------------------------------------------|
|---------------------------------------------------|
|7-7-5-5-3-3-2-2--7-7-5-5-3-3-2---------------------|
|5-5-3-3-1-1-0-0--5-5-3-3-1-1-0---------------------|
 .   .   .   .    .   .   .     
 
part5
|---------------------------------------------------|
|6p5-5-6------7p6—6-7------6p5-5-6------5p4-5-4-----|
|---7------------8------------7------------6--------|
|---------------------------------------------------|
|---------------------------------------------------|
|---------------------------------------------------|

part6
|----------------------------------------------------|
|6p5-5-6p5-5--6p5-5-6p5-5---7p6-6-7p6-6--7p6-6-7p6-6-|
|---7-----7------7-----7-------8-----8------8-----8--|
|----------------------------------------------------|
|----------------------------------------------------|
|----------------------------------------------------|

|----------------------------------------------------|
|6p5-5-6p5-5--6p5-5-6p5-5---5p4-4-5p4-4--5p4-4-5p4-4-|
|---7-----7------7-----7-------6-----6------6-----6--|
|----------------------------------------------------|
|----------------------------------------------------|
|----------------------------------------------------|
end
|----------------------------------------------------|
|----------------------------------------------------|
|----------------------------------------------------|
|7----2--7-------------------------------------------|
|5----0--5-------------------------------------------|
|----------------------------------------------------|

part 1 2x
part 2 1x
part 1 1X 
part 3 1x

part 1 2x
part 4 4x

part 1 2x
part 2 1x
part 1 1x
part 3 1x

part 1 2x
part 5 1x
part 6 2x

w00t

http://www.bollwerk-kromlek.de/
Добавлено: 07.06.2012
Вам также может быть интересно:
Другие материалы по этой песне:

Страница создана 07.06.2012
http://primanota.ru/kromlek/svart-metall-chords.htm
Привет, Гость.
Предлагаем пройти революционный курс по гитаре.
Подарок от PrimaNota.Ru, забирай!