PrimaNota.ru - самый крупный в мире бесплатный архив песенных текстов, аккордов, табулатур и нот


Kristofer Dahl - Curious Coincidence - таба, видео

Регистрация Запомнить меня
Войти через:  Facebook Google Twitter Vk Yandex Mail.ru

Kristofer Dahl - Curious Coincidence - таба, видео

Печатать
Просмотров: 81
I got tired of watching the video over and over so I decided to write down
the tab.  I hope someone can learn this song easier because of this. If you
 have any questions email me at medeivalman98@gmail.com or you can watch
kristofer dahl explain how to do it on his youtube videos

FT-finger tab with right hand
{}-pinch harmonic
h-hammer on
p-pull off
sp-speed picking
b-bend
v-vibrato
/-slide up
\slide down
br-bend and return
(x)-repeat number of times

Part 1:Tapping

e-----------------------------------------------------------------------|
B--9h11---9h11p9--------------------------------------------------------|
G------------------10--8h10p8-------------------------------------------|
D-------------------------------11-10-8-7-------------------------------|
A-----------------------------------------9-8---------------------------|
E-----------------------------------------------------------------------|


e--9h11--------9----9--9p8----8------------------------------------------|
B--------10-10---10--------10---10p8----10-10p8----10-10p8----10-10p8----|
G------------------------------------10---------10---------10---------10-|
D------------------------------------------------------------------------|
A------------------------------------------------------------------------|
E------------------------------------------------------------------------|


e-----------------------------------------------------------------------|
B--8-{11}v--------------------------------------------------------------|
G-----------11-10-------------------------------------------------------|
D-----------------------------------------------------------------------|
A-----------------------------------------------------------------------|
E-----------------------------------------------------------------------|


e--9h11h13------9h11h13-----9h11h13-------------------------------------|
B----------h11----------h11---------h11---------------------------------|
G-----------------------------------------------------------------------|
D-----------------------------------------------------------------------|
A-----------------------------------------------------------------------|
E-----------------------------------------------------------------------|


e--9--9p8h9--9/16\13\11/18---/18\11/18b---------------------------------|
B-----------------------------------------------------------------------|
G-----------------------------------------------------------------------|
D-----------------------------------------------------------------------|
A-----------------------------------------------------------------------|
E-----------------------------------------------------------------------|


e--9h11h13-------------h11--FT18----------------------------------------|
B----------h11-9h11h13--------------------------------------------------|
G-----------------------------------------------------------------------|
D-----------------------------------------------------------------------|
A-----------------------------------------------------------------------|
E-----------------------------------------------------------------------|


e--------------------------h9h13-FT16p13-FT16p13p9----------------------|
B--------------------h9h13-------------------------h11-----h11----------|
G----------------h10-----------------------------------h10--------------|
D----------10-11--------------------------------------------------------|
A-------11--------------------------------------------------------------|
E--9-13-----------------------------------------------------------------|


e--h9h13FT16p13FT16p13p9h11---11p6h11/14-11p9\5-/17---------------------|
B-----------------------------------------------------------------------|
G-----------------------------------------------------------------------|
D-----------------------------------------------------------------------|
A-----------------------------------------------------------------------|
E-----------------------------------------------------------------------|


e--16-13------------------------------------------------------------------|
B--------14-----------14p13-----------------------------------------------|
G-----------15--------------15p13-------15p13-----------------------------|
D--------------15-----------------15p13-------15p13-----------------------|
A------------------16-------------------------------16p13\----------------|
E-------------------------------------------------------------------------|

Part 2:Arpeggios

e-------9--------------------h6FT9p6------------------------------------|
B--9b-----9br-7-----------h7---------h7---------------------------------|
G----------------------h6---------------h6------------------------------|
D-------------------h8---------------------h8---------------------------|
A----------------h9---------------------------h9------------------------|
E-----------------------------------------------------------------------|


e---------------h9FT14p9p6----------------------------------------------|
B--7-7-7--7h9p7------------h7-------------------------------------------|
G-----------------------------h6----------------------------------------|
D--------------------------------h8-------------------------------------|
A-----------------------------------h9p6-8br6---------------------------|
E-----------------------------------------------------------------------|


e-----------------------------------------------------------------------|
B-----------------------------------------------------------------------|
G------5-8-5h8p5-------5---5-8b------6-10-6h10p6------------------------|
D----6-----------6---6---6---------8-------------8-7-6------------------|
A--6---------------6-------------8---------------------8-7-6------------|
E-----------------------------------------------------------------------|

e-------------------------6---6-9-6h9p6-h9h11h13p11p9/11h13h16p13p11----|
B----------------6---6-7b---9-------------------------------------------|
G-----6---6-8-8b---8----------------------------------------------------|
D--/8---8---------------------------------------------------------------|
A-----------------------------------------------------------------------|
E-----------------------------------------------------------------------|


e------16-18-20br-br-br-b-----------------------------------------------|
B--/18------------------------------------------------------------------|
G-----------------------------------------------------------------------|
D-----------------------------------------------------------------------|
A-----------------------------------------------------------------------|
E-----------------------------------------------------------------------|

Part 3:Speed Picking

e--21p20p18(8x)-----18--------18----------------------------------------|
B---------------21b----21-21b----21-21b---------------------------------|
G-----------------------------------------------------------------------|
D-----------------------------------------------------------------------|
A-----------------------------------------------------------------------|
E-----------------------------------------------------------------------|

sp~~~~~~~~~~~~~~~~~~~~~~~~~~~~~~~~~~~~~~~~~~~~~~~~~~~~~~~~~~~~~~~~~~~~~~
e--18-17-16----------------------------------16-17-18-------------------|
B-----------20-19-18----------------18-19-20----------------------------|
G--------------------21-20-19-20-21-------------------------------------|
D-----------------------------------------------------------------------|
A-----------------------------------------------------------------------|
E-----------------------------------------------------------------------|


e--20brp18----21b-21brp18-----------------------------------------------|
B----------18-------------18--------------------------------------------|
G-----------------------------------------------------------------------|
D-----------------------------------------------------------------------|
A-----------------------------------------------------------------------|
E-----------------------------------------------------------------------|

sp~~~~~~~~~~~~~~~~~~~~~~~~~~~~~~~~~~~~~~~~~~~~~~~~~~~~~~~~~~~~~~~~~~~~~~
e--------------------------------18-20-21-------------------------------|
B--------------------------18-21----------------------------------------|
G--------------15-16-18-20----------------------------------------------|
D--------15-18----------------------------------------------------------|
A--16-18----------------------------------------------------------------|
E-----------------------------------------------------------------------|


e--21b-21brp20--------------18------------------------------------------|
B--------------21-21b---21b----21---------------------------------------|
G---------------------------------20-18----18-18------------------------|
D---------------------------------------20-------20-18-20---------------|
A-----------------------------------------------------------------------|
E-----------------------------------------------------------------------|

sp~~~~~~~~~~~~~~~~~~~~~~~~~~~~~~~~~~~~~~~~~~~~~~~~~~~~~~~~~~~~~~~~~~~~~~
e-----------------------------------------------------------------------|
B--------------------------------------18----------------18-20-21-20-18-|
G-----------------------------18-20-21----21-20-18-20-21----------------|
D-----------18-19-20-18-19-20-------------------------------------------|
A--18-19-20-------------------------------------------------------------|
E-----------------------------------------------------------------------|

sp~~~~~~~~~~~~~~~~~~~~~~
e---------------------------21----20----18----20------------------------|
B--20-21-20-18----------------------------------------------------------|
G--------------21-20-18--------21----20----20----20---------------------|
D-----------------------------------------------------------------------|
A-----------------------------------------------------------------------|
E-----------------------------------------------------------------------|
Добавлено: 22.06.2012
Вам также может быть интересно:
Другие материалы по этой песне:

Страница создана 10.06.2012
http://primanota.ru/kristofer-dahl/curious-coincidence-chords.htm
Привет, Гость.
Предлагаем пройти революционный курс по гитаре.
Подарок от PrimaNota.Ru, забирай!