PrimaNota.ru - самый крупный в мире бесплатный архив песенных текстов, аккордов, табулатур и нот


Kristin Hersh - Sparky - аккорды и текст, таба, видео

Регистрация Запомнить меня
Войти через:  Facebook Google Twitter Vk Yandex Mail.ru

Kristin Hersh - Sparky - аккорды и текст, таба, видео

Печатать
Просмотров: 178
Sparky
Kristin Hersh
		   sparky

by kristin hersh
from 'hips and makers'
transcribed by edmond hum (rlp@interlog.com)

---start---

 e---------0----0--|--------0---0--|--------0---0--|
 b------10---10----|------8---8----|------6---6----|
 g----9------------|----7----------|----5----------|
 d--9--------------|--7------------|--5------------|
 a-----------------|---------------|---------------|
 e-----------------|---------------|---------------|


 e--------0------|--------0------|
 b------3---3----|------3---3----|
 g----2-------2--|----2-------2--|
 d--2------------|--2------------|
 a---------------|---------------|
 e---------------|---------------|


 e----------------------0--------|------------------|
 b------1-----1-----3-----3------|-------1-0h1p0----|
 g----2-----2-----2---2-----2----|-------0-------0--|  [repeat 3x]
 d--0-----0-----0-------------0--|----2--2----------|
 a-------------------------------|--3---------------|
 e-------------------------------|------------------|


 e----7----0-------0-------0------|----5----0-------0-------0------|
 b----8--8---8---8---8---8--------|----6--6---6---6---6---6--------|
 g----7--------7-------7-----7s5--|----5--------5-------5-----5s7--|
 d--0-----------------------------|--0-----------------------------|
 a--------------------------------|--------------------------------|
 e--------------------------------|--------------------------------|


 e----7----0-------0-------0------|----5----0-------0-------0------|
 b----8--8---8---8---8---8--------|----6--6---6---6---6---6--------|
 g----7--------7-------7-----7s5--|----5--------5-------5-----5s2--|
 d--0-----------------------------|--0-----------------------------|
 a--------------------------------|--------------------------------|
 e--------------------------------|--------------------------------|


 e----2---------|--0-------------------|
 b----3--3------|--3--3-------3-----0--|
 g----2----2----|--2----2---2-----0----|
 d--0--------0--|----------------------|
 a--------------|---------3-----0------|
 e--------------|----------------------|


   [1st part - go back to beginning...]        [2nd part - End]
 e--------0-----------0-----------0-------|  |-----0-----------||
 b------3---3-------3---3-------3---3----:|  |-----1-----------||
 g----2-------2---2-------2---2-------2---|  |-----2-----------||
 d--2-----------2-----------2-------------|  |-----0-----------||
 a---------------------------------------:|  |-----------------||
 e----------------------------------------|  |-----------------||

---end---     
Добавлено: 31.10.2013
Другие материалы по этой песне:
  • Аккорды и текст

Страница создана 24.03.2012
http://primanota.ru/kristin-hersh/sparky-chords.htm
Привет, Гость.
Предлагаем пройти революционный курс по гитаре.
Подарок от PrimaNota.Ru, забирай!