PrimaNota.ru - самый крупный в мире бесплатный архив песенных текстов, аккордов, табулатур и нот


Kristin Hersh - Rubidoux - аккорды и текст, видео

Регистрация Запомнить меня
Войти через:  Facebook Google Twitter Vk Yandex Mail.ru

Kristin Hersh - Rubidoux - аккорды и текст, видео

Печатать
Просмотров: 85
Rubidoux
Kristin Hersh
RUBIDOUX

album version - CROOKED
____________________________________
____________________________________
Tuned down a whole step to D-G-C-F-A-D.
The bulk of this song is the B riff 
played in a steady repeating rhythm.
____________________________________
____________________________________

chords:
  B:                G:
d-------------     -------------------------
a-------------     -------------------------
f-------------     ---------4-----2-0-------
c---9---------     -----5-----5-------0-----
g-----9p7-7h9-     ---5---5-----5-----------
d-7-----------     -3-------------------3-7-
_____________________________________________

B

The freeway's freeway close

I laugh from the back
    G    B    G  B
The race   is over

Headlights on your teeth

Race down both your backs
       G         B      G   B
In the dark blue car, a party
______________________________________

d----------------------------------------------------
a--------------------10----10-12-12--10p9p7----------
f------8-9-9--8-9-11----11------------------8-8h9-9--
c-9h11----------------------------------------7---7--
g----------------------------------------------------
d----------------------------------------------------

d-----------------------------------------------------------------
a-----------------10-10----10h12-12p10----------------------------
f-----8--9-8-9/11-11-11-11-------------11-------------------------
c-7h9-9-----------------------------------11h13-13h14p13p11----13-
g-----------------------------------------------------------12-14-
d-----------------------------------------------------------------
______________________________________

B
Blue trash on the floor

I hope you find your hunger
     G      B     G
In a hungry world
______________________________________

B

d-14--------14--------14--------14--------14--------14--------14--------14--------14-
a-------0---------0---------0---------0---------0---------0---------0---------0------
f------------------------------------------------------------------------------------
c------------------------------------------------------------------------------------
g------------------------------------------------------------------------------------
d------------------------------------------------------------------------------------
Добавлено: 25.05.2015
Другие материалы по этой песне:
  • Аккорды и текст

Страница создана 25.05.2015
http://primanota.ru/kristin-hersh/rubidoux-chords.htm
Привет, Гость.
Предлагаем пройти революционный курс по гитаре.
Подарок от PrimaNota.Ru, забирай!