PrimaNota.ru - самый крупный в мире бесплатный архив песенных текстов, аккордов, табулатур и нот


Krisiun - Creations Scourge - таба, видео

Регистрация Запомнить меня
Войти через:  Facebook Google Twitter Vk Yandex Mail.ru

Krisiun - Creations Scourge - таба, видео

Печатать
Просмотров: 84
                         KRISIUN - CREATION'S SCOURGE
                    From the Album APOCALYPTIC REVELATIONS
                         Copyright 1998 (Gun Records)

                          Version 1.0 - February 2001

Transcribed by: Chris Ninman

For Questions, Comments, Newest Version, or Corrections contact
       Chris Ninman at:       snowballingblood@hotmail.com

.  - palm mute                    /  - slide up to
\  - slide down to                ~  - vibrato
h  - hammer on                    b  - bend
p  - pull off                          Suffixes for bend
ph - pinch harmonic                     f - full bend    h - half bend
*  - see comment                        r - release      t - tap bend
X  - percussion mute                    ~ - vibrato bend
@  - slight palm mute             () - ghost note, sustained note
"  - tremolo pick until next note

Tune to D (D,G,C,F,A,D)

 Intro
|------------------------------------------------------------------|
|------------------------------------------------------------------|
|------------------------------------------------------------------|
|------------------------------------------------------------------|
|------------------------------------------------------------------|
|-0000000000000000000000000000000000000000000000000000000000000000-|


 Riff 1  (4 times)
|------------------------------------------------------------------|
|------------------------------------------------------------------|
|------------------------------------------------------------------|
|------------------------------------------------------------------|
|------------------------------------------------------------------|
|-0000000000000000000000000000000066665555888877774444333366665555-|


 Riff 2  (4 times)
|--------------------------------------------------|
|--------------------------------------------------|
|--------------------------------------------------|
|--------------------------------------------------|
|--------------------------------------------------|
|-000000000000000066665555888877774444333366665555-|


 Riff 3  (4 times)
|----------------------------------|
|----------------------------------|
|----------------------------------|
|----------------------------------|
|----------------------------------|
|-22223333666655552222333377776666-|


 Riff 4  (4 times)
|--------------------------------------|
|--------------------------------------|
|--------------------------------------|
|--------------------------------------|
|--------------------------------------|
|-555566669999888855556666101010109999-|


 Riff 5  (10 times)
|-----------------------------------------------------------------------|
|-----------------------------------------------------------------------|
|-----------------------------------------------------------------------|
|-----------------------------------------------------------------------|
|-----------------------------------------------------------------------|
|-0"-12"---0"-12"---0"-12"13"15"---0"-12"---0"-12"---0"-12"13"15"11"----|

   * first time is only the left guitar, second time left guitar plays
     riff 5 while right guitar plays riff 5b, the next eight times 
     through riff 5 is played by both right and left guitars 

 Riff 5b
|--------------------------------------------|
|--------------------------------------------|
|--------------------------------------------|
|-9----9----9-10-12---9----9----9-10-12-8----|
|-7----7----7--8-10---7----7----7--8-10-6----|
|-0----0----0---------0----0----0------------|


 Riff 6  (4 times)
|------------------------------------------|
|---------*elevens-------------------------|
|-----------------*tens--------------------|
|------------------------------------------|
|-8888777711111111101010108888777766665555-|
|------------------------------------------|

 Repeat Riff 5  (6 times) 
 Repeat Riff 6  (4 times)
 Repeat Riff 3  (2 times) 
 Repeat Riff 4  (2 times) 
 Repeat Riff 3  (2 times) 

 Riff 7  (16 times)
|-------------------------------------------|
|-------------------------------------------|
|-------------------------------------------|
|--9----------9----------10---------9-7-5-7-|
|--7----------7----------8----------7-5-3-5-|
|--0-00000000---00000000---00000000---------|
     ........   ........   ........

   * first time is only left guitar, next three left guitar does riff 7 
     while right guitar plays just the power chords except for the first 
     time it plays and only the very first chord is left out, last 
     twelve times is both guitars
     
Under Solo
 
 Repeat Riff 7 (4 times) 

 Riff 8  (2 times)
|----------------------------------|
|----------------------------------|
|----------------------------------|
|----------------------------------|
|----------------------------------|
|-55555555555555556666666666666666-|


 Riff 9  (2 times)
|----------------------------------|
|----------------------------------|
|----------------------------------|
|----------------------------------|
|-44444444444444445555555555555555-|
|----------------------------------|

 Repeat Riff 6  (4 times)

End Solo

 Repeat Riff 5  (10 times)  *first time is left guitar only, the next
                             nine times is both guitars
 
 Ending
|----------|
|----------|
|----------|
|-------9--|
|-------7--|
|-0-0-0-0--|
Добавлено: 17.04.2012
Другие материалы по этой песне:
  • Аккорды и текст

Страница создана 17.04.2012
http://primanota.ru/krisiun/creations-scourge-chords.htm
Привет, Гость.
Предлагаем пройти революционный курс по гитаре.
Подарок от PrimaNota.Ru, забирай!