PrimaNota.ru - самый крупный в мире бесплатный архив песенных текстов, аккордов, табулатур и нот


Kris - Tiara - таба, видео

Регистрация Запомнить меня
Войти через:  Facebook Google Twitter Vk Yandex Mail.ru

Kris - Tiara - таба, видео

Печатать
Просмотров: 51
Уроки эстрадного вокала в Санкт-Петербурге
-------------------------------------------------------------------------------
                             KRIS - Tiara
-------------------------------------------------------------------------------
Tabbed by:rizalwahap
E-mail:rwguitarzero@gmail.com

Tuning:Standard

e|---------------------------------------------------------------------------|
B|---------------------------------------------15brb------15brb-15brb--------|
G|--7b~~~---4~------7brb-7brb-7brb~~---4~------------------------------------|
D|--x------------------------------------------------------------------------|
A|---------------------------------------------------------------------------|
E|---------------------------------------------------------------------------|

e|------------------17~---15pbr--15~-----------------------------------------|
B|--17brb-17brb--15----------------------------------------------------------|
G|-----------------------------------------11-9-12-11~-----------------------|
D|---------------------------------------------------------4-2-5-4~----------|
A|---------------------------------------------------------------------------|
E|---------------------------------------------------------------------------|

e|---------------------------------------------------------------------------|
B|---------------------------------------------------------------------------|
G|---------------------------------------------------------------------------|
D|---------------------------------------------------------------------------|
A|---------------------------------------------------------------------------|
E|--2/3-0--2/3-0-------------------------------------------------------------|


Tiara menggamit...


************************************

| /   slide up
| \   slide down
| h   hammer-on
| p   pull-off
| ~   vibrato
| +   harmonic
| x   Mute note
| b   Bend
| pb  Pre-bend
| br  Bend release
| pbr Pre-bend release
| brb Bend release bend

************************************
Добавлено: 24.10.2014
Вам также может быть интересно:
Другие материалы по этой песне:
  • Аккорды и текст

Страница создана 24.10.2014
http://primanota.ru/kris/tiara-chords.htm
Привет, Гость.
Предлагаем пройти революционный курс по гитаре.
Подарок от PrimaNota.Ru, забирай!