PrimaNota.ru - самый крупный в мире бесплатный архив песенных текстов, аккордов, табулатур и нот


Kris Norris - Nocturne - таба, видео

Регистрация Запомнить меня
Войти через:  Facebook Google Twitter Vk Yandex Mail.ru

Kris Norris - Nocturne - таба, видео

Печатать
Просмотров: 122
E||--9-----------------7-----|--------------10-----------|
B||-----------7--------------|-----7------------------7--|
G||-----6--7-----7--6-----6--|--7-----7--6------6--7-----|
D||--------------------------|---------------------------|
A||--------------------------|---------------------------|
E||--7-----------------7-----|--------------7------------|



--------9-----------------|--5-----------------3-----|
-----------------7--------|-----------3--------------|
--7--6-----6--7-----7--6--|-----2--3-----3--2-----2--|
--------------------------|--------------------------|
--------------------------|--------------------------|
--------7-----------------|--3-----------------3-----|



--------------6-----------|--------5-----------------|
-----3-----------------3--|-----------------3--------|
--3-----3--2-----2--3-----|--3--2-----2--3-----3--2--|
--------------------------|--------------------------|
--------------------------|--------------------------|
--------------------------|--3-----------------3-----|



--9--------10--------9-----|-----7-----7--5--------6--|
--7--7--7------7--7--7--7--|--7--7--7-----3--3--3-----|
-----7--6--11--7--6-----7--|--6-----7--6-----3--2--7--|
---------------------------|--------------------------|
---------------------------|--------------------------|
--7------------7-----------|--7-----------3-----------|



--------5--------3-----3--|--9-----------------10-----|
--3--3--3--3--3--3--3-----|-----------7---------------|
--3--2-----3--2-----3--2--|-----6--7-----7--6------6--|
--------------------------|---------------------------|
--------------------------|---------------------------|
--3-----------3-----------|--7-----------------7------|



--------------7-----------|--------12-----10------9-----|
-----7-----------------7--|--------------------------7--|
--7-----7--6-----6--7-----|--7--6-------------11-----7--|
--------------------------|---------------12------------|
--------------------------|------------9----------9-----|
--------------7-----------|--------7--------------------|



--9-----------------7-----|--------------5-----------|
-----------7--------------|-----7--------------0--3--|
-----6--7-----7--6-----6--|--7-----7--6-----2--------|
--------------------------|--------------------------|
--0-----------------0-----|--------------------------|
--------------------------|--------------3-----------|



--------3-----------------|--3-----------------2-----|
--0-----------0--3--0-----|-----------0--------------|
-----2-----2-----------2--|--------0-----0-----------|
--------------------------|-----4-----------4-----4--|
--------------------------|--------------------------|
--------3-----------------|--0-----------------0-----|



--------------0-----------|--------------------------|
-----0-----------------0--|--------3-----2--3--2--0--|
--0-----0-----------2-----|--2--------3--------------|
-----------4-----4--------|-----4--------------------|
--------------------------|--------------------------|
--------------2-----------|--------2-----------------|



--9-----------------7-----|--------------10-----------|
-----------7--------------|-----7------------------7--|
-----6--7-----7--6-----6--|--7-----7--6------6--7-----|
--------------------------|---------------------------|
--------------------------|---------------------------|
--7-----------------7-----|--------------7------------|



--------9-----------------|--5-----------------3-----|
-----------------7--------|-----------3--------------|
--7--6-----6--7-----7--6--|-----2--3-----3--2-----2--|
--------------------------|--------------------------|
--------------------------|--------------------------|
--------7-----------------|--3-----------------3-----|



--------------6-----------|--------5-----------------|
-----3-----------------3--|-----------------3--------|
--3-----3--2-----2--3-----|--3--2-----2--3-----3--2--|
--------------------------|--------------------------|
--------------------------|--------------------------|
--------------3-----------|--------3-----------------|



--9--------10--------9-----|-----7-----7--5--------6--|
--7--7--7------7--7--7--7--|--7--7--7-----3--3--3-----|
-----7--6--11--7--6-----7--|--6-----7--6-----3--2--7--|
---------------------------|--------------------------|
---------------------------|--------------------------|
--7------------7-----------|--7-----------3-----------|



--------5--------3-----3--|--9-----------------10-----|
--3--3--3--3--3--3--3-----|-----------7---------------|
--3--2-----3--2-----3--2--|-----6--7-----7--6------6--|
--------------------------|---------------------------|
--------------------------|---------------------------|
--3-----------3-----------|--7-----------------7------|



--------------7-----------|--------12-----10------9-----|
-----7-----------------7--|--------------------------7--|
--7-----7--6-----6--7-----|--7--6-------------11-----7--|
--------------------------|---------------12------------|
--------------------------|------------9----------9-----|
--------------7-----------|--------7--------------------|



--9-----------------7-----|--------------5-----------|
-----------7--------------|-----7--------------0--3--|
-----6--7-----7--6-----6--|--7-----7--6-----2--------|
--------------------------|--------------------------|
--0-----------------0-----|--------------------------|
--------------------------|--------------3-----------|



--------3-----------------|--3-----------------2-----|
--0-----------0--3--0-----|-----------0--------------|
-----2-----2-----------2--|--------0-----0-----------|
--------------------------|-----4-----------4-----4--|
--------------------------|--------------------------|
--------3-----------------|--0-----------------0-----|



--------------0-----------|--------------------------|
-----0-----------------0--|--------3-----2--3--2--0--|
--0-----0-----------2-----|--2--------3--------------|
-----------4-----4--------|-----4--------------------|
--------------------------|--------------------------|
--------------2-----------|--------2-----------------|



--9-----------------8-----|--------------6-----------|
-----------6--------------|-----6-----------------6--|
-----5--6-----6--5-----5--|--6-----6--5-----5--6-----|
--------------------------|--------------------------|
--------------------------|--------------------------|
--6-----------------6-----|--------------6-----------|



--------8-----------------|--5-----------3-----2-----|
-----------------6--------|-----------3--------------|
--6--5-----5--6-----6--5--|-----2--3-----3--2--------|
--------------------------|-----------------------4--|
--------------------------|--------------------------|
--------6-----------------|--3-----------------0-----|



--------0-----3-----------|--------3-----------------|
-----0--------------3--4--|--3-----------3--4--3-----|
--0-----0--------0--------|-----0-----0-----------0--|
-----------4--------------|--------------------------|
--------------3-----------|--------3-----------------|
--------------------------|--------------------------|



--7-----------------6-----|--------------4-----------|
--------0--4--0-----------|--0--4--0--------------4--|
-----3-----------3-----3--|-----------3-----3--4-----|
--------------------------|--------------------------|
--------------------------|--------------------------|
--4-----------------4-----|--------------4-----------|



--------6-----------------|--7-----------------3-----|
--------------0--4--0-----|-----------0--------------|
--4--3-----3-----------3--|--------0-----0-----------|
--------------------------|-----4-----------4-----4--|
--------------------------|--------------------------|
--------4-----------------|--0-----------------0-----|



--------------2-----------|--------0-----------------|
-----0-----------------0--|-----------------0--------|
--0-----0-----------0-----|--0-----------0-----0-----|
-----------4-----4--------|-----4-----4-----------4--|
--------------------------|--------------------------|
--------------0-----------|--------0-----------------|



--6--------7--------6-----|-----4-----4--2--------3--|
--4--4--4-----4--4--4--4--|--4--4--4-----0--0--0--0--|
-----4--3--8--4--3-----4--|--3-----4--3-----0--------|
--------------------------|--------------------4-----|
--------------------------|--------------------------|
--4-----------4-----------|--4-----------0-----------|



--------2--------0-----0--|--2---------0-----------|------------------------|
--0--0--0--0--0--0--0-----|-------------------3----|-------2------0---------|
--0--------0--------0-----|-------3----------------|------------------------|
-----4--------4--------4--|--2---------------------|--------------4---------|
--------------------------|--1---------------------|--------------2---------|
--0-----------0-----------|------------------------|------------------------|



-------------------|--7---------6--4--------6--|--7--------2--4--------4--|
------4------------|---------4-----------4-----|--------4-----------0-----|
------3------------|-----3------------3--------|-----3-----------1--------|
------4------------|---------------------------|--------------------------|
------6------------|---------------------------|--------------------------|
-------------------|--4------------4-----------|--4-----------0-----------|



--6--------4--2--------2-0---9-|-------7--9--11-----7--11--|
--------0-----------0------4---|---------------------------|
-----------------1-------------|----8------------8---------|
-----6-------------------------|---------------------------|
-------------------------------|---------------------------|
--0-----------0--------------9-|-------------9-------------|



--12-----7--11--9--0--7--9--|--11--0--7--11--12--0--7--11--|
----------------------------|------------------------------|
------8---------------------|------------------------------|
----------------------------|------------------------------|
----------------0-----------|--0-------------0-------------|
--9-------------------------|------------------------------|



--5--------5--4--------4--|--2--------2--0-------0-------|
--------------------------|--------------------4---4-2-4-|
--------2-----------------|-----1--2--------1------------|
-----6-----------6--7-----|--0---------------------------|
--------------------------|--------------4-------------2-|
--2-----------0-----------|------------------------------|



------------------------------7-|----------6--11-----0--9--|
-------2-4-2-0-2------0-2-0-----|-------4------------------|
----------------------------2---|----3---------------------|
----4--------------2------------|--------------------------|
---------------0----------------|-----------------9--------|
------------------------------4-|-------------0------------|



-----------0-----------------0-----------|-----------------------------|
-----------------------------------------|-------1--4------------------|
--------3------3----------3------3-------|--------------5--------------|
-----------------------------------------|----1------------------------|
-----4------------4----4------------4----|-----------------6-----------|
--3------------------3-----------------4-|-------------------4---------|



--7--------6--4--------6--|--7--------2--4--------4--|
--------4-----------4-----|--------4-----------0-----|
-----3-----------3--------|-----3-----------1--------|
--------------------------|--------------------------|
--------------------------|--------------------------|
--4-----------4-----------|--4-----------0-----------|



--6--------4--2--------2-0---9-|-------7--9--11-----7--11--|
--------0-----------0------4---|---------------------------|
-----------------1-------------|----8------------8---------|
-----6-------------------------|---------------------------|
-------------------------------|---------------------------|
--0-----------0--------------9-|-------------9-------------|



--12-----7--11--9--0--7--9--|--11--0--7--11--12--0--7--11--|
----------------------------|------------------------------|
------8---------------------|------------------------------|
----------------------------|------------------------------|
----------------0-----------|--0-------------0-------------|
--9-------------------------|------------------------------|



--5--------5--4--------4--|--2--------2--0--------0--------|
--------------------------|--------------------4-----4--2--|
--------2-----------------|-----1--2--------1--------------|
-----6-----------6--7-----|--0-----------------------------|
--------------------------|--------------4-----------------|
--2-----------0-----------|--------------------------------|



--------------------------------------|--7--------6--11-----0--9--|
--4-----2--4--2--0--2-----0--2--0-----|--------4------------------|
-----------------------------------2--|-----3---------------------|
-----4-----------------2--------------|---------------------------|
--2-----------------0-----------------|------------------9--------|
--------------------------------------|--4-----------0------------|



------------0-------------------0---------|----------------------------||
------------------------------------------|--------1---4---------------||
--------3------3------------3------3------|---------------5------------||
------------------------------------------|-----1----------------------||
-----4------------4------4------------4---|------------------6---------||
--3-------------------3-------------------|--4-------------------------||
Добавлено: 02.06.2012
Вам также может быть интересно:
Другие материалы по этой песне:
  • Аккорды и текст

Страница создана 02.06.2012
http://primanota.ru/kris-norris/nocturne-chords.htm
Привет, Гость.
Предлагаем пройти революционный курс по гитаре.
Подарок от PrimaNota.Ru, забирай!