PrimaNota.ru - самый крупный в мире бесплатный архив песенных текстов, аккордов, табулатур и нот


Kris Norris - Everything Expires - таба, видео

Регистрация Запомнить меня
Войти через:  Facebook Google Twitter Vk Yandex Mail.ru

Kris Norris - Everything Expires - таба, видео

Печатать
Просмотров: 196
 This is just the solo tab, check out my full version tab of the song.


D|-17p13-------------------------------------------|
A|-------15----------------------------------------|
F|----------14-12----------------------------10-12-|
C|----------------15-14-12----------10-12-14-------|
G|-------------------------10-12-13----------------|
C|-------------------------------------------------|



D|-13p10---------------------------------|
A|-------11------------------------------|
F|----------10-9---------------------5-7-|
C|---------------12-10-8-------5-7-8-----|
G|-----------------------5-7-8-----------|
C|---------------------------------------|

 

D|-18-17-15-17-15----15----------------------------------------------------|
A|----------------18----18-17-18-17-15-17-15----15-------------------------|
F|-------------------------------------------18----18-16-18-16-15-16-15-13-|
C|-------------------------------------------------------------------------|
G|-------------------------------------------------------------------------|
C|-------------------------------------------------------------------------|



D|-17p12----------12-17p12----------12-16p12----------12-16p12----------12-|
A|-------12----12----------12----12----------12----12----------12----12----|
F|----------13----------------13----------------13----------------13-------|
C|-------------------------------------------------------------------------|
G|-------------------------------------------------------------------------|
C|-------------------------------------------------------------------------|



D|-17p13----------13-17p13----------------------------13-17p13----------13-|
A|-------15----15----------15----------------------15----------15----15----|
F|----------14----------------14----------------14----------------14-------|
C|-------------------------------15----------15----------------------------|
G|----------------------------------17-12-17-------------------------------|
C|-------------------------------------------------------------------------|



D|-18p13----------13-18p13----------------------------13-18p13----------13-|
A|-------15----15----------15----------------------15----------15----15----|
F|----------14----------------14----------------14----------------14-------|
C|-------------------------------15----------15----------------------------|
G|----------------------------------17-13-17-------------------------------|
C|-------------------------------------------------------------------------|



D|-20p15----------15-20p15----------------------------15-20p15----------15-|
A|-------17----17----------17----------------------17----------17----17----|
F|----------17----------------17----------------17----------------17-------|
C|-------------------------------17----------17----------------------------|
G|----------------------------------19-15-19-------------------------------|
C|-------------------------------------------------------------------------|



D|----------------------------------------------------------|
A|-15-------15-------15-----14-------14-15-14---------------|
F|----12-------12-------12-----12-------------15-14---------|
C|-------14-------14--------------14----------------12~~///-|
G|----------------------------------------------------------|
C|----------------------------------------------------------|

Добавлено: 17.03.2012
Вам также может быть интересно:
Другие материалы по этой песне:

Страница создана 17.03.2012
http://primanota.ru/kris-norris/everything-expires-chords.htm
Привет, Гость.
Предлагаем пройти революционный курс по гитаре.
Подарок от PrimaNota.Ru, забирай!