PrimaNota.ru - самый крупный в мире бесплатный архив песенных текстов, аккордов, табулатур и нот


Krill - Tiger - бас-таба, видео

Регистрация Запомнить меня
Войти через:  Facebook Google Twitter Vk Yandex Mail.ru

Krill - Tiger - бас-таба, видео

Печатать
Просмотров: 55
-------------------------------------------------------------------------------
                             TIGER - Krill
-------------------------------------------------------------------------------
Tabbed by: Jake F
E-mail: JTFucci@gmail.com

Tuning: Drop D

These are the different sections for the song. The main riff is played for most of the song.
The interlude there is a lot of feedback and effects, but it looks like he is playing the
harmonics on the 5th fret. For the ending, each of the notes that I tabbed is played many times,
the changes between the notes can be heard in the song.


MAIN RIFF

G|-----------------------------|
D|-------0-------0-------0-----|
A|------------------0h4-----5--|
D|--0h4-----4h5----------------|


INTERLUDE

G|------(5)-----------------------------------------------------------------------|
D|----------(5)-------------------------------------------------------------------|
A|--(5)---------(5)--------7--5---------------------------------------------------|
D|------------------(5)--5--------12--12--12--12--12--12--12--12--12--12--12--12--|

ENDING

G|--------------------------------------|
D|--------------------------------------|
A|--------------------------------------|
D|--0--2--12--7--4--2--12--7--4--0--12--|

                                
************************************

| /   slide up
| \   slide down
| h   hammer-on
| p   pull-off
| ~   vibrato
| +   harmonic
| x   Mute note
| b   Bend
| pb  Pre-bend
| br  Bend release
| pbr Pre-bend release
| brb Bend release bend

************************************                    
Добавлено: 31.12.2015
Другие материалы по этой песне:
  • Аккорды и текст

Страница создана 31.12.2015
http://primanota.ru/krill/tiger-chords.htm
Привет, Гость.
Предлагаем пройти революционный курс по гитаре.
Подарок от PrimaNota.Ru, забирай!