PrimaNota.ru - самый крупный в мире бесплатный архив песенных текстов, аккордов, табулатур и нот


Krill - Purity Of Heart - таба, видео

Регистрация Запомнить меня
Войти через:  Facebook Google Twitter Vk Yandex Mail.ru

Krill - Purity Of Heart - таба, видео

Печатать
Просмотров: 80
-------------------------------------------------------------------------------
                          Purity of Heart - Krill
-------------------------------------------------------------------------------

Tuning: Standard

Main Riff:

e|------2---------------------------------------------------------------------------|
B|------------4-4-4-4-4-----2-----2-2-2-2-2-----------2-2-2-2-2-----------4-4-4-4-4-|
G|--1-1---1-1-4-4-4-4-4-1-1---1-1-1-1-1-1-1-1-1-4-1-1-1-1-1-1-1-1-1-4-1-1-4-4-4-4-4-|
D|--2-2---2-2-4-4-4-4-4-2-2---2-2-2-2-2-2-2-2-2---2-2-2-2-2-2-2-2-2---2-2-4-4-4-4-4-|
A|--2-2---2-2-----------2-2---2-2-----------2-2---2-2-----------2-2---2-2-----------|
E|----------------------------------------------------------------------------------|

Second Riff:

e|-------------------5-5-5--4-4-4-----------------------------------------|
B|-------------------5-5-5--5-5-5-------5---------------------------------|
G|--1-1-1------------6-6-6--6-6-6-4--6------------------------------------|
D|--2-2-2------------7-7-7--6-6-6-----------------------------------------|
A|--2-2-2-----2--6---7-7-7--4-4-4-----------------------------------------|
E|---------4---------5-5-5--4-4-4-----------------------------------------|


Main riff   6x
Second riff 2x
Main riff   4x
Second riff 4x
Main riff   2x
Second riff 4x
Main riff   2x
Добавлено: 28.07.2015
Вам также может быть интересно:
Другие материалы по этой песне:
  • Аккорды и текст

Страница создана 28.07.2015
http://primanota.ru/krill/purity-of-heart-chords.htm
Привет, Гость.
Предлагаем пройти революционный курс по гитаре.
Подарок от PrimaNota.Ru, забирай!