PrimaNota.ru - самый крупный в мире бесплатный архив песенных текстов, аккордов, табулатур и нот


Krieger - Menuett - таба, видео

Регистрация Запомнить меня
Войти через:  Facebook Google Twitter Vk Yandex Mail.ru

Krieger - Menuett - таба, видео

Печатать
Просмотров: 135
Menuett
                                                        J.Krieger
Key:  ||
      |* = repeat bars
      |*
      ||

3/4
  Am                                     C
e|-0-----------|-1-----------|-------------|-0-----------|
h|-----1-------|-------------|-3---0-------|-------------|
g|---------2---|-------------|-0-------0---|-------------|
d|-------------|-0---2---3---|-------------|-----0---2---|
a|-0-----------|-------------|-------------|-3-----------|
E|-------------|-------------|-------------|-------------|

  Fmaj7        E
e|-------------|---------0---|-------------|-------------|
h|-------1-0---|-------------|-3-1-0-------|-------------|
g|-2---------2-|-1-----------|-------------|-2-----------|
d|-3---0-------|-2---2-0-----|-0---2-----2-|-------------|
a|-------------|---------3---|-------------|-0-----------|
E|-------------|-------------|---------0---|-------------|

e||---------0---|-------------|-------------|-------------|
h||-1---3-------|-------------|-0---1---3---|-------------|
g|*-2-------0---|-2-----------|-0-----------|-0-----------|
d|*-------------|-3---2---0---|---------3---|-2---0-------|
a||-------------|-------------|-------------|---------3---|
E||-------------|-------------|-------------|-------------|

e|-------------|---------3---|-1-0---------|-------------|
h|-----0---1---|-0-----------|-----3-----1-|-1-----------|
g|-2---0---2---|-0-----------|-----0-------|-------------|
d|-2-----------|-------3-2---|-3-----------|-------0-----|
a|-------------|-------------|-------------|-3-------3-2-|
E|-------------|-------------|---------3---|-------------|

e|-0-----------|-1-----------|-------------|-0-----------|
h|-----1-------|-------------|-3---0-------|-------------|
g|---------2---|-------------|-0-------0---|-------------|
d|-------------|-0---2---3---|-------------|-----0---2---|
a|-0-----------|-------------|-------------|-3-----------|
E|-------------|-------------|-------------|-------------|
                 E
e|-------------|---------0---|-------------|-------------||
h|-------1-0---|-------------|-3-1-0-------|-------------||
g|-2---------2-|-1-----------|-----------2-|-2-----------*|
d|-2---0-------|-2---2-0-----|-0---2-------|-------------*|
a|-------------|---------3---|-------------|-0-----------||
E|-------------|-------------|---------0---|-------------||
Добавлено: 24.07.2012
Вам также может быть интересно:
Другие материалы по этой песне:
  • Аккорды и текст

Страница создана 24.07.2012
http://primanota.ru/krieger/menuett-chords.htm
Привет, Гость.
Предлагаем пройти революционный курс по гитаре.
Подарок от PrimaNota.Ru, забирай!