PrimaNota.ru - самый крупный в мире бесплатный архив песенных текстов, аккордов, табулатур и нот


Krezip - Youre Wrong - бас-таба, видео

Регистрация Запомнить меня
Войти через:  Facebook Google Twitter Vk Yandex Mail.ru

Krezip - Youre Wrong - бас-таба, видео

Печатать
Просмотров: 105
Band: Krezip
Nummer: You're wrong
Instrument: Bassguitar

intro 2x
G|--------333-3-5----------8-|
D|------55---5-5-------------|
A|333------------66-66-66-6-6|
E|---666---------------------|

verse 1x
G|-----------------------------------------------------------------|
D|----------------------------565----------------------------------|
A|33333333-----------------------6-33333333---------------------63-|
E|--------66666666444444444444-------------666666666444444444444--4|

chorus A 1x
G|-------------------------------------------------------------------------|
D|-------3--------------5-----3-5------3---------------5-88888888----------|
A|----6---6666--------8--8888--------6--66666655-3333-6-6------------3355-6|
E|4444--4-----33446666-6-----1-3-4444-4--------------------------4466------|

intro 1x

verse 1x
G|-----------------------------------------------------------------|
D|----------------------------565----------------------------------|
A|-------------------------------6-33333333---------------------63-|
E|--------66666666444444444444-------------666666666444444444444--4|

chorus B
G|-----------------------------------------------------------------------
D|-------3--------------5-----3-5------3---------------5-88888888--------
A|----6---6666--------8--8888--------6--66666655-3333-6-6------------3355
E|4444--4-----33446666-6-----1-3-4444-4--------------------------4466----

G|--------|
D|----585-|
A|6666---6|
E|--------|

bridge 1x
G|--------------8--------------8-------------------------------------------
D|10-10-10-108---10-10-10-108---10--------------------------------------8--
A|------------10-------------10---10-11-11-11-11-11-11-11-10-11-11-11-10-10
E|-------------------------------------------------------------------------

G|------------------8--------------------------------------|
D|(10)10-10-10-108---10--------------------8888-10-10------|
A|----------------10---10-11-11-11-66666666----------------|
E|---------------------------------------------------8-8888|

chorus B 2x

outro 2x
G|----------------|
D|------------585-|
A|----33556666---6|
E|4466------------|

Made by Sanne .kusje.
Добавлено: 07.07.2012
Другие материалы по этой песне:
  • Аккорды и текст

Страница создана 07.07.2012
http://primanota.ru/krezip/youre-wrong-chords.htm
Привет, Гость.
Предлагаем пройти революционный курс по гитаре.
Подарок от PrimaNota.Ru, забирай!