PrimaNota.ru - самый крупный в мире бесплатный архив песенных текстов, аккордов, табулатур и нот


Kreator - Son Of Evil - текст песни, таба, видео

Регистрация Запомнить меня
Войти через:  Facebook Google Twitter Vk Yandex Mail.ru

Kreator - Son Of Evil - текст песни, таба, видео

Печатать
Просмотров: 154
Band:  KREATOR
Album: ENDLESS PAIN
Song:  Son Of Evil

Transcribed by: Carlos G

PM  - palm mute
ah  - artifical harmonics
p   - pull off
h   - hammer on
/   - slide up to

Tuning E-A-D-G-B-E


 [Rhy. Fig. 1]
|-----------------------------------------|
|-----------------------------------------|
|-----------------------------------------|
|--------------------------------7--8--7--|
|------8p7-------8p7-------8p7---5--6--5--|
|-0000------0000------0000----------------|
  PM-| ah   PM-| ah   PM-| ah


 [Rhy. Fig. 2]
|-----------------------------------------|
|-----------------------------------------|
|-----------------------------------------|
|-----------------------------------------|
|-5-5-5-5-5-5-5-5-5-5-5-5-5-5-5-5---------|
|-3-3-3-3-3-3-3-3-3-3-3-3-3-3-3-3---------|
  PM----------------------------|


 [Rhy. Fig. 3]
|-------------------------------------------------------------------|
|-------------------------------------------------------------------|
|-------------9-----------------------------------------------------|
|-------------9-----------------------------------------------------|
|-------------7--------------8-7------------------------------------|
|-5-555-555-5----5-555-555-5------5-555-555-5-8-7--3-333-333-3-3----|
  PM--------|    PM--------|      PM--------|      PM--------|


 [Rhy. Fig. 4]
|----------------------------------------------------------|
|----------------------------------------------------------|
|----------------------------------------------------------|
|----------------------------------------------------------|
|------------------------7h8----------------7-----7---7----|
|-0-0-0-0--7h8--0-0-0-0-------0-0-0-0--7h8--5-000-5-0-5----|
  PM----|       PM----|       PM----|         PM|   PM


 [Rhy. Fig. 5a]
|-------------------------------------|
|-------------------------------------|
|-------------------------------------|
|-7/8------7/8------7/8------5--5--5--|
|-5/6-666--5/6-666--5/6-666--3--3--3--|
|-------------------------------------|
      PM|      PM|      PM|  >  >  >

 [Rhy. Fig. 5b]
|-------------------------------------|
|-------------------------------------|
|-------------------------------------|
|-9/10-----9/10-----9/10-----7--7--7--|
|-7/8-888--7/8-888--7/8-888--5--5--5--|
|-------------------------------------|
                             >  >  >


 [Rhy. Fig. 6a]                [Rhy. Fig. 6b]
|-----------------------------|-----------------------------|
|-----------------------------|-----------------------------|
|-----------------------------|-----------------------------|
|-9------------------7--6--7--|-11-----------------9--8--9--|
|-7-777777777777777--5--4--5--|-9-999999999999999--7--6--7--|
|-----------------------------|-----------------------------|
  > PM------------|             > PM------------|



 [Fill 1] [Fill 2] [Fill 3] [Fill 4]
|--------|--------|--------|--------|
|--------|--------|--------|--------|
|--------|--------|--------|--------|
|-7------|-9------|--------|--------|
|-7------|-7------|-7----7-|-7------|
|-5------|--------|-5----5-|-5------|


Song structure:

[Rhy. Fig. 1] (6 times)
[Rhy. Fig. 2 + Rhy. Fig. 1 (2 times)] (4 times)
[Rhy. Fig. 3] (4 times)
[Rhy. Fig. 4 (4 times) + Fill 1]
[Rhy. Fig. 5a] (4 times)
[Rhy. Fig. 5b] (2 times)
[Rhy. Fig. 5a (2 times) + Fill 1]
[Rhy. Fig. 1] (4 times)
[Rhy. Fig. 2 + Rhy. Fig. 1 (2 times)] (4 times)
[Fill 1]
[Rhy. Fig. 6a (4 times) + Rhy. Fig. 6b (2 times)] (2 times)
[Rhy. Fig. 6a] (6 times)
[Rhy. Fig. 6b] (2 times)
[Rhy. Fig. 6a] (2 times)
[Fill 2]
[Rhy. Fig. 5a] (4 times)
[Rhy. Fig. 5b] (2 times)
[Rhy. Fig. 5a (2 times) + Fill 1]
[Rhy. Fig. 1 (4 times) + Fill 3]
[Rhy. Fig. 1 + Fill 4]

Добавлено: 02.05.2012
Другие материалы по этой песне:

Страница создана 01.03.2012
http://primanota.ru/kreator/son-of-evil-chords.htm
Привет, Гость.
Предлагаем пройти революционный курс по гитаре.
Подарок от PrimaNota.Ru, забирай!