PrimaNota.ru - самый крупный в мире бесплатный архив песенных текстов, аккордов, табулатур и нот


Kreator - Replicas Of Life - текст песни, таба, видео

Регистрация Запомнить меня
Войти через:  Facebook Google Twitter Vk Yandex Mail.ru

Kreator - Replicas Of Life - текст песни, таба, видео

Печатать
Просмотров: 168
Intro: clean, t=140 bps

Fig. 1
     E  E  E  Q    E  E  E     E   E   E  Q    E  E  E      E   E   E  Q    E  E  E
D||-------------------------|---------------------------|---------------------------|
A||--------0----------0-----|----------0----------0-----|----------0----------0-----|
F||-----------0----------0--|-------------0----------0--|-------------0----------0--|
C||--2-------------2--------|------------------2--------|------------------2--------|
G||-------------------------|--3------------------------|--2------------------------|
D||--0--0-------------------|--1--(0)-------------------|--0--(0)-------------------|


Play fig. 1 then:

1st time:                      2nd time:                      3rd time:
   E   E   E  E  E  E  E  E       E   E   E  E  E  E  E  E       E   E   E  E  E  E  E  E
|----------------------------| |----------------------------| |----------------------------|
|-------------5--------------| |-------------3--------------| |-------------5--------------|
|----------4-----------------| |----------4-----------------| |----------4-----------------|
|-----(0)--------------2--3--| |-----(0)--------3--2--------| |-----(0)--------------2--3--|
|--5-------------2--3--------| |--5-------------------5--3--| |--5-------------2--3--------|
|--3-------------------------| |--3-------------------------| |--3-------------------------|


Fig. 2
  E  E  E  E   E   E  E  E     E   E   E  E  Q    Q
----------------------------|--------------------------|
----------------------5-----|-------------5------------|
-----------4-------------4--|----------4---------------|
--2-----2----------2--------|-----(2)--------2----4----|
-----0--------(0)-----------|--0-----------------------|
----------------------------|--------------------------|


  E   E   E  E  E  E  E  E     E   E   E  E   E   E  E  E
----------------------------|------------------------------|
----------------------5-----|------------------------------|
-------------4-----------4--|-------------4----------------|
--5-------2-----2-----------|----------2-----12--11--9--7--|
-----(0)-----------0--------|--5--(0)--------10s--9--7--5--|
----------------------------|------------------------------|


Fig. 3
E  E  E  E  E  E  E  E     E  E  E  E  E  E  E  E
--------------------------|--------------------------|
--------------------------|--------------------------|
-----------0--------0-----|-----------0--------0-----|
--0-----0-----2--------2--|--0-----0-----2--------2--|
-----0-----------0--------|-----0-----------0--------|
--------------------------|--------------------------|


  E  E  E  E  E  E  E  E     E  E  E  E  E  E  E  E
--------------------------|--------------------------|
--------------------------|--------------------------|
-----------0--------0-----|--------------------------|
--0-----0-----2--------2--|--------3--------2--------|
-----0-----------0--------|-----5--------4--------3--|
--------------------------|--5--------4--------3-----|


Distorted:

Fig.4
Gtr.1
  E  E  E  E  E  E  E  E     E  E  E  E  E  E  E  E     E  E  E  E  E  E  E  E
--9--------9--------9-----|--5--------5--------5-----|--4--------4--------4-----|
-----7--7-----7--7-----7--|-----3--3-----3--3-----3--|-----2--2-----2--2-----2--|
--------------------------|--------------------------|--------------------------|
--------------------------|--------------------------|--------------------------|
--------------------------|--------------------------|--------------------------|
--------------------------|--------------------------|--------------------------|


Play fig.4 then:

1st time:                    2nd time:                    3rd time:
   E  E  E  E  E  E  E  E       E  E  E  E  E  E  E  E       E  E  E  E  E  E  E  E
|--5--------5--------2--3--| |--7--------7--------7-----| |--5--------5--------2--3--|
|-----3--3-----2--3--------| |-----5--5-----5--5-----5--| |-----3--3-----2--3--------|
|--------------------------| |--------------------------| |--------------------------|
|--------------------------| |--------------------------| |--------------------------|
|--------------------------| |--------------------------| |--------------------------|
|--------------------------| |--------------------------| |--------------------------|


Gtr.2
   W                   W                   W
|-------------------|-------------------|-------------------|
|-------------------|-------------------|-------------------|
|-------------------|-------------------|-------------------|
|--6----------------|--3----------------|--2----------------|
|--4----------------|--1----------------|--0----------------|
|-------------------|-------------------|-------------------|

Play it then

1st time:                 2nd time:                 3rd time:
   H        E  E  E  E      H        E  E  E  E        H        E  E  E  E
|-----------------------| |-----------------------| |-----------------------|
|-----------------------| |-----------------------| |-----------------------|
|-----------------------| |-----------------------| |-----------------------|
|--3--------------------| |--5--------------------| |--3--------------------|
|--1--------------2--3--| |--3--------3--2--------| |--1--------------2--3--|
|-----------2--3--------| |-----------------5--3--| |-----------2--3--------|


Fig.5
Gtr.1
    E  E  E  E  E   E    E   E                  E       E  E  E  E   Q.
--xg9--------------12S--(2)--x--|          |--xg9-------------9-----12------|
-------7--7--7--7---------------|          |------------7--7-----7----------|
--------------------------------|          |--------------------------------|
--------------------------------|          |--------------------------------|
--------------------------------|          |--------------------------------|
--------------------------------| 3x then  |--------------------------------|

Gtr.2
   W+H                          Q    Q       W                   H        E  E  E  E
|-------------------|---------------------|-------------------|-----------------------|
|-------------------|---------------------|-------------------|-----------------------|
|-------------------|---------------------|-------------------|-----------------------|
|-------------------|---------------------|-------------------|-----------------------|
|--2----------------|-----------2----4----|--5----------------|--7--------3--2--------|
|--0----------------|-----------0----2----|--3----------------|--5--------------5--3--|
Riff 1, t=200 bps
  E  S S S S S S E  E  Q       E  S S S S S S E  E  Q
----------------------------|----------------------------|
----------------------------|----------------------------|
----------------------------|----------------------------|
----------------------------|-----------------------5----|
--2--------------5--4--5----|--2--------------4--2--3----|
--0--0-0-0-0-0-0-3--2--3----|--0--0-0-0-0-0-0-2--0-------|


  E  E  E  E  E  E  E  E     E  E  E  E  E  E  E  E
--------------------------|--------------------------|
--------------------------|--------------------------|
--------------------------|--------------------------|
--5-----------------------|-----------------------2--|
--3--------3--2--3--5-----|--3--------3--2--3--5-----|
-----0--0--------------0--|-----0--0-----------------|


  E  S S S S S S E  E  Q       E  S S S S S S E  E  Q
----------------------------|----------------------------|
----------------------------|----------------------------|
----------------------------|----------------------------|
----------------------------|----------------------------|
--2--------------5--4--5----|--2--------------4--2--4----|
--0--0-0-0-0-0-0-3--2--3----|--0--0-0-0-0-0-0-2--0--2----|


  E  E  E  E  E  E  E  E     E  E  E  E  E  E  E  E
--------------------------|--------------------------|
--------------------------|--------------------------|
--------------------------|--------------------------|
--2--------------------2--|--3--2--------------------|
--0--0--0--3--2--3--5-----|--------5--3--5--3--2-----|
--------------------------|-----------------------3--|


Riff 2 (verse)
  S S S S S S S S  E   E  E   E     S S S S S S E  E  S S E  E
---------------------------------|------------------------------|
---------------------------------|------------------------------|
---------------------------------|------------------------------|
---------------------------------|--------------5---------7-----|
--9-9-9-9-9-9-9-9-12--10--9------|--5-5-5-5-5-5----5--5-5----5--|
-----------------------------12--|------------------------------|


  S S S S S S S S  E   E  E   E     S S S S S S E  E  S S E  E
---------------------------------|------------------------------|
---------------------------------|------------------------------|
---------------------------------|------------------------------|
---------------------------------|--------------7---------9-----|
--9-9-9-9-9-9-9-9-12--10--9------|--7-7-7-7-7-7----7--7-7----7--|
-----------------------------12--|------------------------------|


  S S S S S S S S  E   E  E   E     S S S S S S E  E  S S E  E
---------------------------------|------------------------------|
---------------------------------|------------------------------|
---------------------------------|------------------------------|
---------------------------------|--------------5---------7-----|
--9-9-9-9-9-9-9-9-12--10--9------|--5-5-5-5-5-5----5--5-5----5--|
-----------------------------12--|------------------------------|

  S S S S S S S S  E   E  E   E     Q    Q    Q    Q
---------------------------------|----------------------|
---------------------------------|----------------------|
---------------------------------|----------------------|
---------------------------------|--5----4--------------|
--9-9-9-9-9-9-9-9-12--10--9------|--3----2----5----4----|
-----------------------------12--|------------3----2----|


Riff 3 (chorus)
  E  S S S S S S E  S S S S S S    E  S S S S S S Q    Q
--------------------------------|---------------------------|
--------------------------------|---------------------------|
--------------------------------|---------------------------|
--5--------------5--------------|--5--------------5----4----|
--3--3-3-3-3-3-3-3--3-3-3-3-3-3-|--3--3-3-3-3-3-3-3----2----|
--------------------------------|---------------------------|


  E  S S S S S S E  S S S S S S    E  S S S S S S Q    Q
--------------------------------|---------------------------|
--------------------------------|---------------------------|
--------------------------------|---------------------------|
--2--------------2--------------|--2-------------------7----|
--0--0-0-0-0-0-0-0--0-0-0-0-0-0-|--0--0-0-0-0-0-0-5----5----|
--------------------------------|-----------------3---------|

Riff 4 (post-chorus)
  E  S S E  E  E  E  E  E     E  S S E  E  E  E  E  E
---------------------------|---------------------------|
---------------------------|---------------------------|
---------------------------|---------------------------|
---------------------------|---------------------------|
---------------5--3--2--0--|---------------------------|
--3--3-3-3--3--------------|--2--2-2-2--2--3--2--3--5--|


Break, t=100 bps.
  W+H.                         pick slide
---------------------------------------|
---------------------------------------|
--4------------------------------------|
--4------------------------------------|
--2----------------------------x-------|
-------------------------------x-------|


Riff 5 (‘die in pain')
  S S S S H.              S S S S H.
-----------------------|-----------------------|
-----------------------|-----------------------|
-----------------------|-----------------------|
-----------------------|----------7------------|
----------2------------|--------0-5------------|
--0-2-3-0-0------------|--0-2-3----------------|


  S S S S H        S E.     E  S S Q    Q    S  E.
-------------------------|--------------------------|
-------------------------|--------------------------|
-------------------------|--------------------------|
----------2----------4---|--5------5----------------|
--------0-0--------0-2---|--3--3-3-3----5----7s-5---|
--0-2-3------------------|--------------3----5s-3---|


Solo background:
   S S S S H.              S S S S H.
|-----------------------|-----------------------|
|-----------------------|-----------------------|
|-----------------------|-----------------------|
|-----------------------|----------2------------|
|----------5------------|--------0-0------------|
|--0-0-2-3-3------------|--0-2-3----------------|


  S S S S H        S E.     S S S S H        S E.
-------------------------|-------------------------|
-------------------------|-------------------------|
-------------------------|-------------------------|
-------------------------|-------------------------|
----------2----------3---|----------2----------3---|
--0-0-0-0-0--------0-1---|--0-0-0-0-0--------0-1---|


   S S S S S S S S S S S S S S S S    S S S S S S S S S S S S S S S S
|----------------------------------|----------------------------------|
|----------------------------------|----------------------------------|
|----------------------------------|----------------------------------|
|----------------------------------|----------------------------------|
|--3-3-3-3-3-3-3-3-3-3-3-3-3-3-3-3-|--2-2-2-2-2-2-2-2-2-2-2-2-2-2-2-2-|
|----------------------------------|----------------------------------|


  S S S S S S S S S S S S S E.     S S S S S S S S S S S S S E.
--------------------------------|--------------------------------|
--------------------------------|--------------------------------|
--------------------------------|--------------------------------|
----------------------------4---|----------------------------4---|
--0-0-0-0-0-0-0-0-0-0-0-0-0-2---|--0-0-0-0-0-0-0-0-0-0-0-0-0-2---|
--------------------------------|--------------------------------|


  S S S S S S S S S S S S S S S S    S S S S S S S S S S S S S S S S
----------------------------------|----------------------------------|
----------------------------------|----------------------------------|
----------------------------------|----------------------------------|
----------------------------------|----------------------------------|
--3-3-3-3-3-3-3-3-3-3-3-3-3-3-3-3-|--5-5-5-5-5-5-5-5-5-5-5-5-5-5-5-5-|
----------------------------------|----------------------------------|


  S S S S S S S S S S S S S E.     S S S S S S S S S S S S S E.
--------------------------------|--------------------------------|
--------------------------------|--------------------------------|
--------------------------------|--------------------------------|
----------------------------4---|----------------------------4---|
--0-0-0-0-0-0-0-0-0-0-0-0-0-2---|--0-0-0-0-0-0-0-0-0-0-0-0-0-2---|
--------------------------------|--------------------------------|


Guitar solo 1:
   S  S  S  S  S  S  S  S  S  S  S   S  S  S  S  S
|---------------------------------------------------|
|---------------------------------------------------|
|---------------------------------------------------|
|---------------------------------------------17-19-|
|-----------------12-14-17-14-17-17s-19-19-19-------|
|--15-12-15-12-15-----------------------------------|


   S  S  S  S  S   S  S  E   S  T   T   S  S  S  S  S
------------------------------------------------------|
--------------17s-20-20-20--19-17h-19p-17-17-15-12-15-|
--16-19-16-19-----------------------------------------|
------------------------------------------------------|
------------------------------------------------------|
------------------------------------------------------|

    AH       AH              AH
     E   S    E    S  S  S    S  S     S  S  S  S  S  S
---------0----------------------------------------------|
--<>17~----<>17~----------------------------------------|
--------------------------------------------------------|
---------------------12----<>12-------------------------|
------------------14----14------14-12g14-13-12----12----|
-----------------------------------------------15----15-|


           |--3--|
   T   T   S  S  S  S  S S  S S  S Q.+S
--------------------------------------------|
--------------------------------------------|
--------------------------------------------|
--------------------------------------------|
--12h-13p-12----12-----------------7--------|
-------------15----15-12-7-10-7-10----------|


  PM PM  PMPM PM PM  PMPM PM PM  PMPM PM PM  PMPM PM PM  PMPM PM PM  PM
  T  T   T T  T  T   T T  T  T   T T  T  T   T T  T  T   T T  T  T   T T E.  S
-------------------------------------------------------------------------------|
-----------------------------------------------------------------------8-8---7-|
-------------------------------------------------------------------------------|
-----------------------------------------------7--7--9--10-7--7--9--10---------|
-----------------------7--7--9--10-7--7--9--10---------------------------------|
--7--9--10-7--7--9--10---------------------------------------------------------|


             AH
  T  T  T T   S S S  S  S S  S  E      S  S S  S S
--------------------------------------10-----------|
--7h-8p-7---<>7----------------10b12-----10-8-10-8-|
----------9-----7-7s-9-12-9-12---------------------|
---------------------------------------------------|
---------------------------------------------------|
---------------------------------------------------|

                   AH
   Q       E  S S   E    S S  S  S  S  S
-----------------------------------------|
-----------------------------------------|
-----------------------------------------|
-----------------------------------------|
--12b14r--10--7-5-<>7~--10-7-10-10-10-10-|
-----------------------------------------|


  S  S  S  S S  S S S S S S S   S T T S S
------------------------------------------|
------------------------------------------|
--------------------7---7---7-7g9-7---7---|
-------------7----9---9---9---------9---9-|
--9-10-10-10---10-------------------------|
------------------------------------------|


   S  S  S  S  E       E       T   T  X   X  T  S  S  S S S  S
--------12--------------------12p-10---------------------------|
--12-15----15-(17)r15--15b17---------12p-10----10--------------|
--------------------------------------------12----12-11-9-9----|
------------------------------------------------------------12-|
---------------------------------------------------------------|
---------------------------------------------------------------|


  PM  PMPM  PM PMPM  PM PM
  S   S S   S  S S   S  S  T  T  T  T S  S S S S S
--------------------------10p-8p-7----7------------|
-----------------------------------10---10-8-7-----|
-----------------------------------------------9-7-|
--9--12-7--10-10-9---------------------------------|
--------------------10-12--------------------------|
---------------------------------------------------|


   E      E      H       S S S S    S   S  S  S S  S S  S S  S S T  T Q
--10b12--10b12--10b12r~----------|-----------------------------------------|
---------------------------------|-----------------------------------------|
---------------------------------|-----------------------------------------|
-------------------------7-7-7-7-|--7s-10-10s-9-9s-7-7s-5-5s-7-7-3s-2-2----|
---------------------------------|-----------------------------------------|
---------------------------------|-----------------------------------------|

                 AH
  Q      E  S S   E    S S  S  S  S  S
---------------------------------------|
---------------------------------------|
---------------------------------------|
--7b9r---5-----------------------------|
------------7-5-<>7~--10-7-10-10-10-10-|
---------------------------------------|


  S  S  S  S S  S S S S S S S   S T T S S
------------------------------------------|
------------------------------------------|
--------------------7---7---7-7g9-7---7---|
-------------7----9---9---9---------9---9-|
--9-10-10-10---10-------------------------|
------------------------------------------|


  S S S S Q     S  S  T   T   T  T  S  S  S  S
-----------------------------------------------|
-----------------------------------------------|
--7-9-9-9-9----11-12-11h-12p-11----11----11-12-|
--------------------------------14----14-------|
-----------------------------------------------|
-----------------------------------------------|


   S  S   S  S  S  S  T   T   T  T  S  S  S  S  Q
-------------------------------------------------------|
--13-15s-15-15-15-15-15p-13p-12----12------------------|
--------------------------------14----14-12-11-12b14r--|
-------------------------------------------------------|
-------------------------------------------------------|
-------------------------------------------------------| end solo.
  S S S  S Q      S S E   S S  E      S S S  S Q      S S E   S S E
-----------------------------------|----------------------------------|
-----------------------------------|----------------------------------|
-----------------------------------|------------------------------7~--|
--9-7-9-10-9~----10-9-7~--9-7------|--9-7-9-10-9~----10-9-7~--9-7-----|
------------------------------10~--|----------------------------------|
-----------------------------------|----------------------------------|


Fig. 6:
Gtr.1
  S S S  S Q      S S E   S S  E      S S S  S Q      S S E   S S E
-----------------------------------|----------------------------------|
-----------------------------------|----------------------------------|
-----------------------------------|------------------------------7~--|
--9-7-9-10-9~----10-9-7~--9-7------|--9-7-9-10-9~----10-9-7~--9-7-----|
------------------------------10~--|----------------------------------|
-----------------------------------|----------------------------------|

Gtr.2
  S S S  S Q      S S E   S S  E      S S S  S Q      S S E   S S E
-----------------------------------|----------------------------------|
-----------------------------------|------------------------------8~--|
--9-7-9-10-9~----10-9-7~--9-7------|--9-7-9-10-9~----10-9-7~--9-7-----|
------------------------------10~--|----------------------------------|
-----------------------------------|----------------------------------|
-----------------------------------|----------------------------------|


Fig.7
Gtr.1
  PM PM PM PM             PM PM PM PM
   S  S  S  S  S  S  S  S  S  S  S  S  S  S  S  S
--------------------------------------------------|
--------------------------------------------------|
--------------------------------------------------|
--------------------------------------------------|
--------14-16-17-16-14-16-------14-16-17-16-17-19-|
--14-17-------------------14-17-------------------|


   PM PM PM PM             PM PM PM PM       W
   S  S  S  S  S  S  S  S  S  S  S  S  S  S  E
------------------------------------------------|
------------------------------------------------|
------------------------------------------------|
------------------------------------------------|
--------14-16-17-16-14-16-------14-15-17-16-19--|
--14-17-------------------14-17-----------------|


   PM PM PM PM             PM PM PM PM
   S  S  S  S  S  S  S  S  S  S  S  S  S  S  S  S
--------------------------------------------------|
--------------------------------------------------|
--------------------------------------------------|
--------------------------------------------------|
--------14-16-17-16-14-16-------14-16-17-16-17-19-|
--14-17-------------------14-17-------------------|


   PM PM PM PM             PM PM PM PM
   S  S  S  S  S  S  S  S  S  S  S  S  S  S  S  S    S S S S H.
--------------------------------------------------|-----------------------|
--------------------------------------------------|-----------------------|
--------------------------------------------------|-----------------------|
--------------------------------------------------|-----------------------|
--------16-18-19-18-16-18-------16-18-19-18-19-21-|-----------------------|
--16-19-------------------16-19-------------------|-----------------------|


Gtr.2
   PM PM PM PM             PM PM PM PM
   S  S  S  S  S  S  S  S  S  S  S  S  S  S  S  S
--------------------------------------------------|
--------------------------------------------------|
--------------------------------------------------|
--------12-14-15-14-12-14-------12-14-15-14-15-17-|
--12-15-------------------12-15-------------------|
--------------------------------------------------|


   PM PM PM PM             PM PM PM PM       W
   S  S  S  S  S  S  S  S  S  S  S  S  S  S  E
------------------------------------------------|
------------------------------------------------|
------------------------------------------------|
--------12-14-15-14-12-14-------12-14-15-14-17--|
--12-15-------------------12-15-----------------|
------------------------------------------------|


   PM PM PM PM             PM PM PM PM
   S  S  S  S  S  S  S  S  S  S  S  S  S  S  S  S
--------------------------------------------------|
--------------------------------------------------|
--------------------------------------------------|
--------12-14-15-14-12-14-------12-14-15-14-15-17-|
--12-15-------------------12-15-------------------|
--------------------------------------------------|


   PM PM PM PM             PM PM PM PM
   S  S  S  S  S  S  S  S  S  S  S  S  S  S  S  S     W
--------------------------------------------------|--------------------|
--------------------------------------------------|--------------------|
--------------------------------------------------|--16----------------|
--------14-16-17-16-14-16-------14-16-17-16-17-19-|--16----------------|
--14-17-------------------14-17-------------------|--------------------|
--------------------------------------------------|--------------------|


2nd solo background:
t=200 bps
   S S S S S S S S  E   E  E   E
|---------------------------------|
|---------------------------------|
|---------------------------------|
|---------------------------------|
|--9-9-9-9-9-9-9-9-12--10--9------|
|-----------------------------12--|


  S S S S S S E  E  S S E  E     S S S S S S S S  E   E  E   E
------------------------------|---------------------------------|
------------------------------|---------------------------------|
------------------------------|---------------------------------|
--------------5---------7-----|---------------------------------|
--5-5-5-5-5-5----5--5-5----5--|--9-9-9-9-9-9-9-9-12--10--9------|
------------------------------|-----------------------------12--|


  S S S S S S E  E  S S E  E     S S S S S S S S  E   E  E   E
------------------------------|---------------------------------|
------------------------------|---------------------------------|
------------------------------|---------------------------------|
--------------7---------9-----|---------------------------------|
--7-7-7-7-7-7----7--7-7----7--|--9-9-9-9-9-9-9-9-12--10--9------|
------------------------------|-----------------------------12--|


  S S S S S S E  E  S S E  E     S S S S S S S S  E   E  E   E
------------------------------|---------------------------------|
------------------------------|---------------------------------|
------------------------------|---------------------------------|
--------------5---------7-----|---------------------------------|
--5-5-5-5-5-5----5--5-5----5--|--9-9-9-9-9-9-9-9-12--10--9------|
------------------------------|-----------------------------12--|


  Q    Q    Q    Q       S S S S S S S S  E   E  E  E
----------------------|--------------------------------|
----------------------|--------------------------------|
----------------------|--------------------------------|
--5----4--------------|--------------------------------|
--3----2----5----4----|--------------------------------|
------------3----2----|--9-9-9-9-9-9-9-9-12--10--9--7--|


  S S S S S S E  E  S S E  E     S S S S S S S S  E   E  E  E
------------------------------|--------------------------------|
------------------------------|--------------------------------|
------------------------------|--------------------------------|
------------------------------|--------------------------------|
--------------5---------7-----|--------------------------------|
--5-5-5-5-5-5----5--5-5----5--|--9-9-9-9-9-9-9-9-12--10--9--7--|


  S S S S S S E  E  S S E  E     S S S S S S S S  E   E  E  E
------------------------------|--------------------------------|
------------------------------|--------------------------------|
------------------------------|--------------------------------|
------------------------------|--------------------------------|
--------------7---------9-----|--------------------------------|
--7-7-7-7-7-7----7--7-7----7--|--9-9-9-9-9-9-9-9-12--10--9--7--|


  S S S S S S E  E  S S E  E     S S S S S S S S  E   E  E  E
------------------------------|--------------------------------|
------------------------------|--------------------------------|
------------------------------|--------------------------------|
------------------------------|--------------------------------|
--------------5---------7-----|--------------------------------|
--5-5-5-5-5-5----5--5-5----5--|--9-9-9-9-9-9-9-9-12--10--9--7--|


  Q    Q    Q    Q       Q    Q    Q    Q
----------------------|----------------------|
----------------------|----------------------|
----------------------|----------------------|
--3----2--------------|--5----4--------------|
--1----0----3----2----|--3----2----5----4----|
------------1----0----|------------3----2----|
Guitar solo 2:
    S  S  S  S  S  S  S  S  S  S  S  S  S  S  S  S
|--17-15-14-14-17-15-14-14-17-15-14-14-17-15-14-14-|
|--------------------------------------------------|
|--------------------------------------------------|
|--------------------------------------------------|
|--------------------------------------------------|
|--------------------------------------------------|


   S  S  S  S  S  S  S  S  S  S  S  S  S  S  S  S
--17-15-14-14-17-15-14-14-17-15-14-14-17-15-14-14-|
--------------------------------------------------|
--------------------------------------------------|
--------------------------------------------------|
--------------------------------------------------|
--------------------------------------------------|


    AH         PM PM PM PM PM PM PM PM                    PM PM
     H         S  S  S  S  S  S  S  S     Q.      Q.      E  E
--<>14~--------------------------------|------------------------|
---------------------------------------|--5b------5b------------|
---------------------------------------|--5b------5b------------|
------------------------4--4--5--7--7--|------------------------|
---------------4--5--7-----------------|------------------5--4--|
---------------------------------------|------------------------|


  PM PM PM PM PM PM   PM PM PM PM PM PM PM PM                PM PM PM PM
     |-----5-----|
  E  S  S  S  S  S    E  E  S  S  S  S  S  S     E  E  E  E  E  E  E  E
----------------------------------------------|--------------------------|
----------------------------------------------|--7--5--------------------|
----------------------------------------------|--------7--6--4-----------|
----------------------------------------------|-----------------7--6--4--|
--2--2--2-----------xg5--4--4--2--------------|--------------------------|
-----------5--3--2----------------5--3--2--2--|--------------------------|


      PM PM PM PM PM PM     PM PM PM PM PM PM      AH
  S S S  S  S  S  S  S  S S S  S  S  S  S  S        W
----------------------------------------------|--<>14b16\----------------|
--7-5-------------------7-5-------------------|--------------------------|
------7--6--4---------------7--6--4-----------|--------------------------|
---------------7--6--4---------------7--6--4--|--------------------------|
----------------------------------------------|--------------------------|
----------------------------------------------|--------------------------|


  S S S S S S E  S S E  S S E     S S S S S S S S S S S S S S E
-------------------------------|---------------------------------|
--9-7-----7--------------------|--9-7-----7----------------------|
------9-8---9-6--9-8-6--8-6----|------9-8---9-6-6-9-8-6-6-8-6----|
----------------------------9--|------------------------------9--|
-------------------------------|---------------------------------|
-------------------------------|---------------------------------|


              |-------3------|
   H          Q      Q       Q       E  E  S S H+E
---9----------9-------------------|---------------------------|
--12b14------12b14--12----9g10----|--7--5------7b9r~----------|
----------------------------------|--------6-4----------------|
----------------------------------|---------------------------|
----------------------------------|---------------------------|
----------------------------------|---------------------------|


   PM  PM  PM  PM  PM  PM  PM  PM
   E   E   E   E   E   E   E   E      E   E   E   E   E   E   E   E
----------------------------------|----------------------------------|
----------------------------------|----------------------------------|
----------------------------------|--13--------------13--------------|
--14--11------11--14--11------11--|------14--13--14------14--13--14--|
----------14--------------14------|----------------------------------|
----------------------------------|----------------------------------|


   PM PM PM PM PM PM PM PM    PM PM PM    PM PM PM     AH
   S  S  S  S  S  S  S  S  S  S  S  S  S  S  S  S       W
--------------------------------------------------|--<>14b16\----------------|
--------------------------------------------------|--------------------------|
--------------------------13----------13----------|--------------------------|
--14-11----11-14-11----11----14-13-14----14-13-14-|--------------------------|
--------14----------14----------------------------|--------------------------|
--------------------------------------------------|--------------------------|


   S  S  S  S  S  S  S  S  S  S  S  S  S  S  S  S     W
--------------------------------------------------|--19b20~--------------|
--------------------------18-15----15-18-15----15-|----------------------|
--17-14----14-17-14----14-------17----------17----|----------------------|
--------17----------17----------------------------|----------------------|
--------------------------------------------------|----------------------|
--------------------------------------------------|----------------------|

Ending:
t=118 bps
Gtr.1 (clean)
  E  E  E  Q    E  E  E     E   E   E  Q    E  E  E
-------------------------|---------------------------|
--------0----------0-----|----------0----------0-----|
-----------0----------0--|-------------0----------0--|
--2-------------2--------|------------------2--------|
-------------------------|---------------------------|
-----0-------------------|--1--(0)-------------------|


  E   E   E  Q    E  E  E     E   E   E  E  E  E  E  E
---------------------------|----------------------------|
----------0----------0-----|-------------5--------------|
-------------0----------0--|----------4-----------------|
------------------2--------|-----(0)--------------2--3--|
---------------------------|----------------2--3--------|
--0--(0)-------------------|--3-------------------------|


  E  E  E  Q    E  E  E     E   E   E  Q    E  E  E
-------------------------|---------------------------|
--------0----------0-----|----------0----------0-----|
-----------0----------0--|-------------0----------0--|
--2-------------2--------|------------------2--------|
-------------------------|---------------------------|
-----0-------------------|--1--(0)-------------------|


  E   E   E  Q    E  E  E     E   E   E  E  E  E  E  E
---------------------------|----------------------------|
----------0----------0-----|-------------3--------------|
-------------0----------0--|----------4-----------------|
------------------2--------|-----(0)--------3--2--------|
---------------------------|----------------------5--3--|
--0--(0)-------------------|--3-------------------------|


  E  E  E  Q    E  E  E     E   E   E  Q    E  E  E
-------------------------|---------------------------|
--------0----------0-----|----------0----------0-----|
-----------0----------0--|-------------0----------0--|
--2-------------2--------|------------------2--------|
-------------------------|---------------------------|
-----0-------------------|--1--(0)-------------------|


  E   E   E  Q    E  E  E     E   E   E  E  E  E  E  E
---------------------------|----------------------------|
----------0----------0-----|-------------5--------------|
-------------0----------0--|----------4-----------------|
------------------2--------|----------------------2--3--|
---------------------------|-----(5)--------2--3--------|
--0--(0)-------------------|--3-------------------------|


  E  E  E  E   E   E  E  E     E   E   E  E  Q    Q
----------------------------|--------------------------|
----------------------5-----|-------------5------------|
-----------4-------------4--|----------4---------------|
--2-----2----------2--------|-----(2)--------2----4----|
-----0--------(0)-----------|--0-----------------------|
----------------------------|--------------------------|


  E   E   E  E  E  E  E  E     E   E   E  E  E   E  E  E     W
----------------------------|-----------------------------|--0----------------|
----------------------5-----|-----------------------------|-------------------|
-------------4-----------4--|-------------4---------------|-------------------|
--5-------2-----2-----------|----------2-----5s--4--------|-------------------|
-----(0)-----------0--------|--5--(0)---------------7--5--|-------------------|
----------------------------|-----------------------------|-------------------|


Gtr.2 (distorted)
   W                   W                   W                   H        E  E  E  E
|-------------------|-------------------|-------------------|-----------------------|
|-------------------|-------------------|-------------------|-----------------------|
|-------------------|-------------------|-------------------|-----------------------|
|-------------------|--5----------------|--4----------------|--5--------------2--3--|
|--2----------------|--3----------------|--2----------------|--3--------2--3--------|
|--0----------------|-------------------|-------------------|-----------------------|


  W                   W                   W
-------------------|-------------------|-------------------|
-------------------|-------------------|-------------------|
-------------------|-------------------|-------------------|
-------------------|--5----------------|--4----------------|
--2----------------|--3----------------|--2----------------|
--0----------------|-------------------|-------------------|


  H        E  E  E  E     W                   W
-----------------------|-------------------|-------------------|
-----------------------|-------------------|-------------------|
-----------------------|-------------------|-------------------|
--7--------3--2--------|-------------------|--5----------------|
--5--------------5--3--|--2----------------|--3----------------|
-----------------------|--0----------------|-------------------|


  W                   H          E  E  E  E     W
-------------------|-------------------------|-------------------|
-------------------|-------------------------|-------------------|
-------------------|-------------------------|-------------------|
--4----------------|--5----------------2--3--|--2----------------|
--2----------------|--3--------0g2--3--------|--0----------------|
-------------------|-------------------------|-------------------|


  H        Q    Q       W                   H        E  E  E  E
---------------------|-------------------|-----------------------|
---------------------|-------------------|-----------------------|
---------------------|-------------------|-----------------------|
--L--------2----4----|--5----------------|--7--------5--4--------|
--L--------0----2----|--3----------------|--5--------------7--5--|
---------------------|-------------------|-----------------------|


  W
-------------------|
-------------------|
-------------------|
--2----------------|
--2----------------|
--0----------------|


End.
Добавлено: 10.07.2012
Другие материалы по этой песне:

Страница создана 27.02.2012
http://primanota.ru/kreator/replicas-of-life-chords.htm
Привет, Гость.
Предлагаем пройти революционный курс по гитаре.
Подарок от PrimaNota.Ru, забирай!