PrimaNota.ru - самый крупный в мире бесплатный архив песенных текстов, аккордов, табулатур и нот


Kreator - One Evil Comes - A Million Follow - текст песни, таба, видео

Регистрация Запомнить меня
Войти через:  Facebook Google Twitter Vk Yandex Mail.ru

Kreator - One Evil Comes - A Million Follow - текст песни, таба, видео

Печатать
Просмотров: 124
-------------------------------------------------------------------------------
                             One Evil Comes- A Million Follow - Kreator
-------------------------------------------------------------------------------

Tabbed by: Mustaine
Email: kreator11@gmail.com


Tuning: D Standard


------------------------------------------------------------------------------|
------------------------------------------------------------------------------|
------------------------------------------------------------------------------|
-9-------10-9-7---------------------10---9-------10-9-7-------------4---7---4-|
---7-7-7--------10-----------7-9-10--------7-7-7--------10-5--5-5-5---5---5---|
--------------------8--8-8-8--------------------------------------------------|
 Guitar 1

------------------------------------------------------------------------------|
------------------------------------------------------------------------------|
------------------------------------------------------------------------------|
-9---------------------------------------9----------------------4---7----7--9-|
-7------------------7--------------------7-------------5--5-5-5---5---5--5--7-|
--------------------8---------------------------------------------------------|
 Guitar 2

------------------------------------------------------------------------------|
------------------------------------------------------------------------------|
------------------------------------------------------------------------------|
-9-------10-9-7---------------------10---9-------10-9-7-------------5---4-----|
---7-7-7--------10-----------7-9-10--------7-7-7--------10-5--5-5-5---5---5---|
--------------------8--8-8-8--------------------------------------------------|
 Guitar 1

------------------------------------------------------------------------------|
------------------------------------------------------------------------------|
------------------------------------------------------------------------------|
------------------------------------------------------------------------------|
-5-7--------------------------------------------------------------------------|
------------------------------------------------------------------------------|
 Guitar 1 (continued)

------------------------------------------------------------------------------|
------------------------------------------------------------------------------|
------------------------------------------------------------------------------|
-9---------------------------------------9------------------------------------|
-7------------------7--------------------7----------------------5---4---------|
--------------------8----------------------------------5--5-5-5---5---5--5-7--|
 Guitar 2

------------------------------------------------------------------------------|
------------------------------------------------------------------------------|
------------------------------------------------------------------------------|
----------------------------6---------------------------------------3-2---2---|
----------------------8-7-8---8-7-5-7-----------------------3-2-3-5-----5-----|
-0-0-0--0-0-0--0-0-0-------------------0-0-0--0-0-0--0-0-0--------------------|
 Guitar 1

------------------------------------------------------------------------------|
------------------------------------------------------------------------------|
--------------------------------------------------------------------5p4-------|
----------------------------6-------------------------------5-4-5-7-----5p0---|
----------------------8-7-8---8-7-5-7-----------------------------------------|
-0-0-0--0-0-0--0-0-0-------------------0-0-0--0-0-0--0-0-0--------------------|
 Guitar 1

------------------------------------------------------------------------------|
----------------------------4-------------------------------------------------|
----------------------5-4-5---5-4---4-------------------------------5-4---4---|
----------------------------------7-------------------------5-4-5-7-----7-----|
------------------------------------------------------------------------------|
-0-0-0--0-0-0--0-0-0-------------------0-0-0--0-0-0--0-0-0--------------------|
 Guitar 2

------------------------------------------------------------------------------|
----------------------------4-------------------------------------------------|
----------------------5-4-5---5-4---4-----------------------------------------|
----------------------------------7-------------------------------4-7p5p4-----|
------------------------------------------------------------7-5-7---------5-7-|
-0-0-0--0-0-0--0-0-0-------------------0-0-0--0-0-0--0-0-0--------------------|
 Guitar 2

------------------------------------------------------------------------------|
------------------------------------------------------------------------------|
------------------------------------------------------------------------------|
-----------------------------------------------7--9\--------------------------|
-----------------------------------------------5--7\----------------------8-7-|
-0-0-0--0-0-0--0-0-0--0-0-0--0-0-0--0-0-0--0-0--------0-0-0--0-0-0--0-0-0-----|


------------------------------------------------------------------------------|
------------------------------------------------------------------------------|
------------------------------------------------------------------------------|
---6--------------------------------------------------------7--9\-------------|
-8---8-7-5-7------------------------------------------------5--7\-------------|
--------------0-0-0--0-0-0--0-0-0--0-0-0--0-0-0--0-0-0--0-0---------0-0-0-----|


------------------------------------------------------------------------------|
------------------------------------------------------------------------------|
------------------------------------------------------------------------------|
-----------------------3-2---2------------------------------------------------|
---------------3-2-3-5-----5--------------------------------------------------|
-0-0-0--0-0-0-------------------0-0-0--0-0-0--0-0-0--0-0-0--0-0-0--0-0-0--0-0-|


------------------------------------------------------------------------------|
------------------------------------------------------------------------------|
------------------------------------------------------------------------------|
-7--9\-----------------------------6------------------------------------------|
-5--7\-----------------------8-7-8---7-5-7------------------------------------|
--------0-0-0--0-0-0--0-0-0-----------------0-0-0--0-0-0--0-0-0--0-0-0--0-0-0-|


------------------------------------------------------------------------------|
------------------------------------------------------------------------------|
------------------------------------------------------------------------------|
-------------7--9\------------------------------------------------------------|
-------------5--7\------------------------------------------------------------|
-0-0-0--0-0---------0-0-0--0-0-0--0-0-0--0------------------------------------|


------------------------------------------------------------------------------|
------------------------------------------------------------------------------|
------------------------------------------------------------------------------|
------------------------------------------------------------------------------|
-8-----------5--7-------------------------------------------------------------|
-6--0-0-0-0--3--5-------------------------------------------------------------|


------------------------------------------------------------------------------|
------------------------------------------------------------------------------|
------------------------------------------------------------------------------|
-2------2------3------2--2------------2-------------4------2------2------3----|
-2---4--0---4--1---4--2--2--4--5---4--0---5--3---5--2------2---4--0---4--1----|
-0---2------2------2--0--0--2--3---2------3--1---3---------0---2------2-------|
 "Hand of fate..."

------------------------------------------------------------------------------|
------------------------------------------------------------------------------|
------------------------------------------------------------------------------|
----2---2------------4--------------------------------------------------7-----|
-4--2---2--5--3---5--2--------------------------------------------------5-----|
-2--0---0--3--1---3-----------------------------------------------------------|


------------------------------------------------------------------------------|
------------------------------------------------------------------------------|
------------------------------------------------------------------------------|
----------------------------6---------------------------------------3-2---2---|
----------------------8-7-8---8-7-5-7-----------------------3-2-3-5-----5-----|
-0-0-0--0-0-0--0-0-0-------------------0-0-0--0-0-0--0-0-0--------------------|
 Guitar 1

------------------------------------------------------------------------------|
------------------------------------------------------------------------------|
--------------------------------------------------------------------5p4-------|
----------------------------6-------------------------------5-4-5-7-----5p0---|
----------------------8-7-8---8-7-5-7-----------------------------------------|
-0-0-0--0-0-0--0-0-0-------------------0-0-0--0-0-0--0-0-0--------------------|
 Guitar 1

------------------------------------------------------------------------------|
----------------------------4-------------------------------------------------|
----------------------5-4-5---5-4---4-------------------------------5-4---4---|
----------------------------------7-------------------------5-4-5-7-----7-----|
------------------------------------------------------------------------------|
-0-0-0--0-0-0--0-0-0-------------------0-0-0--0-0-0--0-0-0--------------------|
 Guitar 2

------------------------------------------------------------------------------|
----------------------------4-------------------------------------------------|
----------------------5-4-5---5-4---4-----------------------------------------|
----------------------------------7-------------------------------4-7p5p4-----|
------------------------------------------------------------7-5-7---------5-7-|
-0-0-0--0-0-0--0-0-0-------------------0-0-0--0-0-0--0-0-0--------------------|
 Guitar 2

------------------------------------------------------------------------------|
------------------------------------------------------------------------------|
------------------------------------------------------------------------------|
-----------------------------------------------7--9\--------------------------|
-----------------------------------------------5--7\----------------------8-7-|
-0-0-0--0-0-0--0-0-0--0-0-0--0-0-0--0-0-0--0-0--------0-0-0--0-0-0--0-0-0-----|


------------------------------------------------------------------------------|
------------------------------------------------------------------------------|
------------------------------------------------------------------------------|
---6--------------------------------------------------------7--9\-------------|
-8---8-7-5-7------------------------------------------------5--7\-------------|
--------------0-0-0--0-0-0--0-0-0--0-0-0--0-0-0--0-0-0--0-0---------0-0-0-----|


------------------------------------------------------------------------------|
------------------------------------------------------------------------------|
------------------------------------------------------------------------------|
-----------------------3-2---2------------------------------------------------|
---------------3-2-3-5-----5--------------------------------------------------|
-0-0-0--0-0-0-------------------0-0-0--0-0-0--0-0-0--0-0-0--0-0-0--0-0-0--0-0-|


------------------------------------------------------------------------------|
------------------------------------------------------------------------------|
------------------------------------------------------------------------------|
-7--9\-----------------------------6------------------------------------------|
-5--7\-----------------------8-7-8---7-5-7------------------------------------|
--------0-0-0--0-0-0--0-0-0-----------------0-0-0--0-0-0--0-0-0--0-0-0--0-0-0-|


------------------------------------------------------------------------------|
------------------------------------------------------------------------------|
------------------------------------------------------------------------------|
-------------7--9\------------------------------------------------------------|
-------------5--7\------------------------------------------------------------|
-0-0-0--0-0---------0-0-0--0-0-0--0-0-0--0------------------------------------|


------------------------------------------------------------------------------|
------------------------------------------------------------------------------|
------------------------------------------------------------------------------|
------------------------------------------------------------------------------|
-8-----------5--7-------------------------------------------------------------|
-6--0-0-0-0--3--5-------------------------------------------------------------|


------------------------------------------------------------------------------|
------------------------------------------------------------------------------|
------------------------------------------------------------------------------|
-2------2------3------2--2------------2-------------4------2------2------3----|
-2---4--0---4--1---4--2--2--4--5---4--0---5--3---5--2------2---4--0---4--1----|
-0---2------2------2--0--0--2--3---2------3--1---3---------0---2------2-------|
 "Hand of fate..."

------------------------------------------------------------------------------|
------------------------------------------------------------------------------|
------------------------------------------------------------------------------|
----2---2------------4--------------------------------------------------------|
-4--2---2--5--3---5--2--------------------------------------------------------|
-2--0---0--3--1---3-----------------------------------------------------------|


------------------------------------------------------------------------------|
------------------------------------------------------------------------------|
------------------------------------------------------------------------------|
-2-----------2-----------------------------------------2-------2-----------2--|
-0--5--3--5--0----5-----------5-----------5------------2--5----0--5--3--5--0--|
----3--1--3---------3-3-3-3-3---3-3-3-3-3---3-3-3-3-3--0--3-------3--1--3-----|
 "Things won't be the same..."

------------------------------------------------------------------------------|
------------------------------------------------------------------------------|
------------------------------------------------------------------------------|
--------------------------------------2--3------------------------------------|
-5-----------5-----------5------------2--1------------------------------------|
---3-3-3-3-3---3-3-3-3-3---3-3-3-3-3--0---------------------------------------|
                       repeat above 2 bars 2x

------------------------------------------------------------------------------|
------------------------------------------------------------------------------|
-6-4------------------------------------6-4-----------------------7-5-4-------|
-----7-5--7-5-4-----------------------------7-5--7-5-4----5-4-----------------|
--------------------0-10-9-----7-9-10-------------------------7-5-------------|
---------------------------10-------------------------------------------------|
 Guitar 1              repeat above bar 2x

------------------------------------------------------------------------------|
------------------------------------------------------------------------------|
-9-7------------------4----------4----9-7------------------4------------------|
-----10-9--10-9-7---7---5-4--5-7----------10-9--10-9-7---7---7-5--5-5---------|
----------------------------------------------------------------------7-------|
------------------------------------------------------------------------------|
 Guitar 2

------------------------------------------------------------------------------|
------------------------------------------------------------------------------|
------------------------------------------------------------------------------|
-11-11-11-------------------------------------11-11-11------------------------|
----------12-14-12-11---11-12-11----9-11-12------------12-14-12-11--11-12-11--|
---------------------------------12-------------------------------------------|
 Guitar 1

------------------------------------------------------------------------------|
------------------------------------------------------------------------------|
----9-------------------------------------------------------------------------|
------12-11-------------------------------------------------------------------|
------------------------------------------------------------------------------|
-12---------------------------------------------------------------------------|
 Guitar 1 (continued)

------------------------------------------------------------------------------|
------------------------------------------------------------------------------|
-9-11-9----------------------------------------9-11-9-------------------------|
--------11-11--12-11-9---12-11-9--------9-11----------11-11--12-11-9---9-11-9-|
---------------------------------11--12---------------------------------------|
------------------------------------------------------------------------------|
 Guitar 2

------------------------------------------------------------------------------|
------------------------------------------------------------------------------|
------------------------------------------------------------------------------|
------------------------------------------------------------------------------|
-12---12-12-9-----------------------------------------------------------------|
------------------------------------------------------------------------------|
 Guitar 2 (continued)

------------------------------------------------------------------------------|
------------------------------------------------------------------------------|
------------------------------------------------------------------------------|
-----------------------------------------------7--9\--------------------------|
-----------------------------------------------5--7\----------------------8-7-|
-0-0-0--0-0-0--0-0-0--0-0-0--0-0-0--0-0-0--0-0--------0-0-0--0-0-0--0-0-0-----|
 solo rhythm

------------------------------------------------------------------------------|
------------------------------------------------------------------------------|
------------------------------------------------------------------------------|
---6--------------------------------------------------------7--9\-------------|
-8---8-7-5-7------------------------------------------------5--7\-------------|
--------------0-0-0--0-0-0--0-0-0--0-0-0--0-0-0--0-0-0--0-0---------0-0-0-----|


------------------------------------------------------------------------------|
------------------------------------------------------------------------------|
------------------------------------------------------------------------------|
-----------------------3-2---2------------------------------------------------|
---------------3-2-3-5-----5--------------------------------------------------|
-0-0-0--0-0-0-------------------0-0-0--0-0-0--0-0-0--0-0-0--0-0-0--0-0-0--0-0-|


------------------------------------------------------------------------------|
------------------------------------------------------------------------------|
------------------------------------------------------------------------------|
-7--9\-----------------------------6------------------------------------------|
-5--7\-----------------------8-7-8---7-5-7------------------------------------|
--------0-0-0--0-0-0--0-0-0-----------------0-0-0--0-0-0--0-0-0--0-0-0--0-0-0-|


------------------------------------------------------------------------------|
------------------------------------------------------------------------------|
------------------------------------------------------------------------------|
-------------7--9\-------------------------------7--10p9p7--------------7-----|
-------------5--7\-----------------------10-9-10----------------10-9-10-------|
-0-0-0--0-0---------0-0-0--0-0-0--0-0-0--------------------10-----------------|


------------------------------------------------------------------------------|
------------------------------------------------------------------------------|
------------------------------------------------------------------------------|
-10p9p7--------------7--10p9p7------------7--10p9p7---------------------------|
-------------10-9-10--------------10-9-10-------------------------------------|
--------10------------------------------------------10------------------------|


------------------------------------------------------------------------------|
------------------------------------------------------------------------------|
------------------------------------------------------------------------------|
-2------2------3------2--2------------2-------------4------2------2------3----|
-2---4--0---4--1---4--2--2--4--5---4--0---5--3---5--2------2---4--0---4--1----|
-0---2------2------2--0--0--2--3---2------3--1---3---------0---2------2-------|
 "Hand of fate..."

------------------------------------------------------------------------------|
------------------------------------------------------------------------------|
------------------------------------------------------------------------------|
----2---2------------4------------4---------------4---------------------------|
-4--2---2--5--3---5--2--5--3---5--2--5--3--3---5--2---------------------------|
-2--0---0--3--1---3-----3--1---3-----3--1--1---3------------------------------|
            "One evil comes... One evil comes..."

------------------------------------------------------------------------------|
------------------------------------------------------------------------------|
------------------------------------------------------------------------------|
-9-------10-9-7---------------------10---9-------10-9-7-------------4---7---4-|
---7-7-7--------10-----------7-9-10--------7-7-7--------10-5--5-5-5---5---5---|
--------------------8--8-8-8--------------------------------------------------|
 Guitar 1

------------------------------------------------------------------------------|
------------------------------------------------------------------------------|
------------------------------------------------------------------------------|
-9---------------------------------------9----------------------4---7---4-----|
-7------------------7--------------------7-------------5--5-5-5---5---5-------|
--------------------8---------------------------------------------------------|
 Guitar 2

------------------------------------------------------------------------------|
------------------------------------------------------------------------------|
------------------------------------------------------------------------------|
-9\---------------------------------------------------------------------------|
-7\---------------------------------------------------------------------------|
------------------------------------------------------------------------------|
Добавлено: 21.06.2012
Другие материалы по этой песне:

Страница создана 21.06.2012
http://primanota.ru/kreator/one-evil-comes-a-million-follow-chords.htm
Привет, Гость.
Предлагаем пройти революционный курс по гитаре.
Подарок от PrimaNota.Ru, забирай!