PrimaNota.ru - самый крупный в мире бесплатный архив песенных текстов, аккордов, табулатур и нот


Kraventzman - Maedchenrock Girlpower - аккорды и текст

Регистрация Запомнить меня
Войти через:  Facebook Google Twitter Vk Yandex Mail.ru

Kraventzman - Maedchenrock Girlpower - аккорды и текст

Печатать
Просмотров: 69
Maedchenrock Girlpower
Kraventzman
Mädchenrock Grilpower
(T. & M. Martin McFly 2oo4)

Artist: 'The Goldin Crackheads Benefiz Support Band' (= KRAVENTZMAN
undercover synonym)
Title: MÄDCHENROCK GIRLPOWER
Album: [UNRELEASED - inofficial bootleg]
Tab: H.S.

This song sounds like 'tallica, suicidal tendencies and die ärzte all
together! (but it's easy)

Play very very fast - faster as you can..!

 figure I
 e|------------------------------------------|
 b|------------------------------------------|
 g|-*--------------------------------------*-|
 d|-*--8--8--8--8--8--8--8--8--8--8--8-6/7-*-|
 a|----8--8--8--8--8--8--8--8--8--8--8-6/7---|
 e|---10-10-10-10-10-10-10-10-10-10-10-8/9---|

mädchenrock mädchenrock girlpower girlpower

 figure II
 e|-------------------------|
 b|-------------------------|
 g|-*---------------------*-|
 d|-*-1-1-1-1-3-----------*-|
 a|---1-1-1-1-3-----*-------|
 e|---3-3-3-3-5--10-9-7-5---|

*Im not shure if Mr.McFly is playin' a short & very fast bend and release
here(?)


these lyrics belong to figure two:

G viel Soul
G viel Gefühle
G viel Power
G viel alles

G viel Feminism
G viel Schmalz
G viel Leidenschaft
G viel alles

Notice: Things change - and so this tab will be incorrect 'cause of
kraventzman are changing their lyrics and notes oftenly...

For more information about kraventzman have a look at www.kraventzman.de >
their official webpage

-- 
     
Добавлено: 14.07.2013
Другие материалы по этой песне:
  • Аккорды и текст

Страница создана 14.07.2013
http://primanota.ru/kraventzman/maedchenrock-girlpower-chords.htm
Привет, Гость.
Предлагаем пройти революционный курс по гитаре.
Подарок от PrimaNota.Ru, забирай!