PrimaNota.ru - самый крупный в мире бесплатный архив песенных текстов, аккордов, табулатур и нот


Kraut - Unemployed - таба, видео

Регистрация Запомнить меня
Войти через:  Facebook Google Twitter Vk Yandex Mail.ru

Kraut - Unemployed - таба, видео

Печатать
Просмотров: 52
Unemployed by Kraut.
Tabbed by Mathieu T.(Machine62)
Email:  Machine_sk8@hotmail.fr

let me feedback  please :)

Intro(repeat x4):

e|------------------------------------------------------|
b|------------------------------------------------------|
g|---------------------6-6-6--7-7-7---------------------|
d|-------------4-4-4--4-4-4--5-5-5--7-7-7---------------|
a|------------4-4-4--4-4-4--5-5-5--5-5-5----------------|
E|-----------2-2-2----------------5-5-5-----------------|

Verses:

e|------------------------------------------------------|
b|------------------------------------------------------|
g|----------6-6-6--7-7-7--------------------------------|
d|--4-4-4--4-4-4--5-5-5--7-7-7--------------------------|
a|-4-4-4--4-4-4--5-5-5--5-5-5---------------------------|
E|2-2-2----------------5-5-5----------------------------|

There's to much fighting in England

e|------------------------------------------------------|
b|------------------------------------------------------|
g|----------6-6-6--7-7-7--------------------------------|
d|--4-4-4--4-4-4--5-5-5--7-7-7--------------------------|
a|-4-4-4--4-4-4--5-5-5--5-5-5---------------------------|
E|2-2-2----------------5-5-5----------------------------|

There's to much fighting in Ireland

e|------------------------------------------------------|
b|------------------------------------------------------|
g|----------6-6-6--7-7-7--------------------------------|
d|--4-4-4--4-4-4--5-5-5--7-7-7--------------------------|
a|-4-4-4--4-4-4--5-5-5--5-5-5---------------------------|
E|2-2-2----------------5-5-5----------------------------|

There's to many Riots,to many Ulsters

e|------------------------------------------------------|
b|------------------------------------------------------|
g|----------6-6-6--7-7-7--------------------------------|
d|--4-4-4--4-4-4--5-5-5--7-7-7--------------------------|
a|-4-4-4--4-4-4--5-5-5--5-5-5---------------------------|
E|2-2-2----------------5-5-5----------------------------|

Do you want it Here!?


1st Bridge:

e|------------------------------------------------------|
b|------------------------------------------------------|
g|3-4-3-----------------3-4-3---------------------------|
d|------4---------------------4-------------------------|
a|-------4---5-7-5-4-5---------4-5-7-57-9---------------|
e|------------------------------------------------------|

e|------------------------------------------------------|
b|------------------------------------------------------|
g|3-4-3-----------------3-4-3---------------------------|
d|------4---------------------4-------------------------|
a|-------4---5-7-5-4-5---------4-5----------------------|
e|------------------------------------------------------|

Verses:

e|------------------------------------------------------|
b|------------------------------------------------------|
g|----------6-6-6--7-7-7--------------------------------|
d|--4-4-4--4-4-4--5-5-5--7-7-7--------------------------|
a|-4-4-4--4-4-4--5-5-5--5-5-5---------------------------|
E|2-2-2----------------5-5-5----------------------------|

Whose cause is good? What time, what neighboehood?

e|------------------------------------------------------|
b|------------------------------------------------------|
g|----------6-6-6--7-7-7--------------------------------|
d|--4-4-4--4-4-4--5-5-5--7-7-7--------------------------|
a|-4-4-4--4-4-4--5-5-5--5-5-5---------------------------|
E|2-2-2----------------5-5-5----------------------------|

Fight for peace, fight for freedom

e|------------------------------------------------------|
b|------------------------------------------------------|
g|----------6-6-6--7-7-7--------------------------------|
d|--4-4-4--4-4-4--5-5-5--7-7-7--------------------------|
a|-4-4-4--4-4-4--5-5-5--5-5-5---------------------------|
E|2-2-2----------------5-5-5----------------------------|

Break that window for a stupid T.V.

e|------------------------------------------------------|
b|------------------------------------------------------|
g|----------6-6-6--7-7-7--------------------------------|
d|--4-4-4--4-4-4--5-5-5--7-7-7--------------------------|
a|-4-4-4--4-4-4--5-5-5--5-5-5---------------------------|
E|2-2-2----------------5-5-5----------------------------|

Throw your pipebomb - Runaway!


Bridge:

e|------------------------------------------------------|
b|------------------------------------------------------|
g|3-4-3-----------------3-4-3---------------------------|
d|------4---------------------4-------------------------|
a|-------4---5-7-5-4-5---------4-5-7-57-9---------------|
e|------------------------------------------------------|

e|------------------------------------------------------|
b|------------------------------------------------------|
g|3-4-3-----------------3-4-3---------------------------|
d|------4---------------------4-------------------------|
a|-------4---5-7-5-4-5---------4-5----------------------|
e|------------------------------------------------------|



Verses:

e|------------------------------------------------------|
b|------------------------------------------------------|
g|---6-6-6--7-7-7---------------------------------------|
d|--4-4-4--4-4-4--5-5-5--7-7-7--------------------------|
a|-4-4-4--4-4-4--5-5-5--5-5-5---------------------------|
E|2-2-2----------------5-5-5----------------------------|

Out at night,during the day

e|------------------------------------------------------|
b|------------------------------------------------------|
g|----------6-6-6--7-7-7--------------------------------|
d|--4-4-4--4-4-4--5-5-5--7-7-7--------------------------|
a|-4-4-4--4-4-4--5-5-5--5-5-5---------------------------|
E|2-2-2----------------5-5-5----------------------------|

When the Bombs go off, what do you say?

e|------------------------------------------------------|
b|------------------------------------------------------|
g|----------6-6-6--7-7-7--------------------------------|
d|--4-4-4--4-4-4--5-5-5--7-7-7--------------------------|
a|-4-4-4--4-4-4--5-5-5--5-5-5---------------------------|
E|2-2-2----------------5-5-5----------------------------|

Scared to go out, scared to stay

e|------------------------------------------------------|
b|------------------------------------------------------|
g|----------6-6-6--7-7-7--------------------------------|
d|--4-4-4--4-4-4--5-5-5--7-7-7--------------------------|
a|-4-4-4--4-4-4--5-5-5--5-5-5---------------------------|
E|2-2-2----------------5-5-5----------------------------|

Watch your children when they go out to play


2nd Bridge:


e|-------------------------------------------------------|
b|------------------------------------11-----------------|
g|3-4-3~--4-3-6-0--3-4-3~3(slide down)-------------------|
d|-------------------------------------------------------|
a|-------------------------------------------------------|
e|-------------------------------------------------------|

e|-------------------------------------11-11-11-11-11-11-|
b|-------------------------------------11-11-11-11-11-11-|
g|3-4-3~-3-4-3-4-3~--3-4-3(slide down)-11-11-11-11-11-11-|
d|-------------------------------------------------------|
a|-------------------------------------------------------|
e|-------------------------------------------------------|

Verses:

e|------------------------------------------------------|
b|------------------------------------------------------|
g|----------6-6-6--7-7-7--------------------------------|
d|--4-4-4--4-4-4--5-5-5--7-7-7--------------------------|
a|-4-4-4--4-4-4--5-5-5--5-5-5---------------------------|
E|2-2-2----------------5-5-5----------------------------|
I love those fights, i love the rage

e|------------------------------------------------------|
b|------------------------------------------------------|
g|----------6-6-6--7-7-7--------------------------------|
d|--4-4-4--4-4-4--5-5-5--7-7-7--------------------------|
a|-4-4-4--4-4-4--5-5-5--5-5-5---------------------------|
E|2-2-2----------------5-5-5----------------------------|

Make those stiffs live in fear


e|------------------------------------------------------|
b|------------------------------------------------------|
g|----------6-6-6--7-7-7--------------------------------|
d|--4-4-4--4-4-4--5-5-5--7-7-7--------------------------|
a|-4-4-4--4-4-4--5-5-5--5-5-5---------------------------|
E|2-2-2----------------5-5-5----------------------------|

Living in boroughs away from the Public

e|------------------------------------------------------|
b|------------------------------------------------------|
g|----------6-6-6--7-7-7--------------------------------|
d|--4-4-4--4-4-4--5-5-5--7-7-7--------------------------|
a|-4-4-4--4-4-4--5-5-5--5-5-5---------------------------|
E|2-2-2----------------5-5-5----------------------------|

Don't give'em a chance to organize!

3 Bridge :

e|---------------------------------------------------------11---|
b|---------------------------------------------------------11---|
g|3-4-3~--3-3-4-6----0--3-3-4-3~-------3-4-3~-(slide down)-11---|
d|--------------------------------------------------------------|
a|-----------------------------4--5-----------------------------|
e|--------------------------------------------------------------|

To much figthing; to much fighting


Verses (repeat x4)

e|------------------------------------------------------|
b|------------------------------------------------------|
g|----------6-6-6--7-7-7--------------------------------|
d|--4-4-4--4-4-4--5-5-5--7-7-7--------------------------|
a|-4-4-4--4-4-4--5-5-5--5-5-5---------------------------|
E|2-2-2----------------5-5-5----------------------------|

Riot! Riot! Riot

4 Bridge:

e|------------------------------------------------------|
b|------------------------------------------------------|
g|--7-7~6~7-7-7--7-7------------------------------------|
d|-7-7~4~7-7-7--7-7-------------------------------------|
a|5-5~4~5-5-5--5-5--------------------------------------|
E|------------------------------------------------------|

Do you want it here!?!


End (repeat x4):

e|------------------------------------------------------|
b|------------------------------------------------------|
g|----------6-6-6--7-7-7--------------------------------|
d|--4-4-4--4-4-4--5-5-5--7-7-7--------------------------|
a|-4-4-4--4-4-4--5-5-5--5-5-5---------------------------|
E|2-2-2----------------5-5-5----------------------------|


http://www.youtube.com/watch?v=XNoord8k6rA
Добавлено: 10.09.2013
Другие материалы по этой песне:
  • Аккорды и текст

Страница создана 10.09.2013
http://primanota.ru/kraut/unemployed-chords.htm
Привет, Гость.
Предлагаем пройти революционный курс по гитаре.
Подарок от PrimaNota.Ru, забирай!